ISO-10303-21;
HEADER;
FILE_DESCRIPTION (( 'STEP AP203' ),
    '1' );
FILE_NAME ('010-0226E_N-BK7_PCV_window.STEP',
    '2021-02-25T11:22:01',
    ( '' ),
    ( '' ),
    'SwSTEP 2.0',
    'SolidWorks 2019',
    '' );
FILE_SCHEMA (( 'CONFIG_CONTROL_DESIGN' ));
ENDSEC;

DATA;
#1 = DIRECTION ( 'NONE',  ( -0.000000000000000000, -0.000000000000000000, -1.000000000000000000 ) ) ;
#2 = CC_DESIGN_APPROVAL ( #48, ( #50 ) ) ;
#3 = ADVANCED_FACE ( 'NONE', ( #130 ), #191, .F. ) ;
#4 = CIRCLE ( 'NONE', #172, 12.69999999999999929 ) ;
#5 = EDGE_CURVE ( 'NONE', #129, #189, #4, .T. ) ;
#6 = ORIENTED_EDGE ( 'NONE', *, *, #77, .T. ) ;
#7 = DATE_TIME_ROLE ( 'creation_date' ) ;
#8 = FACE_OUTER_BOUND ( 'NONE', #95, .T. ) ;
#9 = LOCAL_TIME ( 13, 22, 1.000000000000000000, #90 ) ;
#10 = CIRCLE ( 'NONE', #33, 12.70000000001234852 ) ;
#11 = CARTESIAN_POINT ( 'NONE',  ( 0.000000000000000000, 0.000000000000000000, 0.000000000000000000 ) ) ;
#12 = PERSON_AND_ORGANIZATION ( #13, #32 ) ;
#13 = PERSON ( 'UNSPECIFIED', 'UNSPECIFIED', 'UNSPECIFIED', ('UNSPECIFIED'), ('UNSPECIFIED'), ('UNSPECIFIED') ) ;
#14 = DATE_AND_TIME ( #165, #79 ) ;
#15 = CYLINDRICAL_SURFACE ( 'NONE', #19, 12.69999999999999929 ) ;
#16 = CARTESIAN_POINT ( 'NONE',  ( 12.70000000001265583, 1.555301434918688544E-15, 5.999999999999783284 ) ) ;
#17 = ADVANCED_FACE ( 'NONE', ( #118 ), #87, .F. ) ;
#18 = EDGE_LOOP ( 'NONE', ( #82, #34, #161 ) ) ;
#19 = AXIS2_PLACEMENT_3D ( 'NONE', #137, #110, #109 ) ;
#20 = EDGE_CURVE ( 'NONE', #83, #62, #61, .T. ) ;
#21 = ORIENTED_EDGE ( 'NONE', *, *, #5, .T. ) ;
#22 = ORIENTED_EDGE ( 'NONE', *, *, #150, .F. ) ;
#23 = COORDINATED_UNIVERSAL_TIME_OFFSET ( 2, 0, .AHEAD. ) ;
#24 = DIRECTION ( 'NONE',  ( 1.000000000000000000, 0.000000000000000000, 0.000000000000000000 ) ) ;
#25 = MANIFOLD_SOLID_BREP ( 'Cut-Revolve1', #155 ) ;
#26 = PERSON_AND_ORGANIZATION ( #13, #32 ) ;
#27 = CC_DESIGN_DATE_AND_TIME_ASSIGNMENT ( #132, #7, ( #98 ) ) ;
#28 = PLANE ( 'NONE',  #29 ) ;
#29 = AXIS2_PLACEMENT_3D ( 'NONE', #11, #197, #54 ) ;
#30 = APPLICATION_PROTOCOL_DEFINITION ( 'international standard', 'config_control_design', 1994, #182 ) ;
#31 = ORIENTED_EDGE ( 'NONE', *, *, #20, .F. ) ;
#32 = ORGANIZATION ( 'UNSPECIFIED', 'UNSPECIFIED', '' ) ;
#33 = AXIS2_PLACEMENT_3D ( 'NONE', #78, #1, #171 ) ;
#34 = ORIENTED_EDGE ( 'NONE', *, *, #20, .T. ) ;
#35 = DIRECTION ( 'NONE',  ( -0.000000000000000000, -0.000000000000000000, -1.000000000000000000 ) ) ;
#36 = PERSON_AND_ORGANIZATION ( #13, #32 ) ;
#37 = DIRECTION ( 'NONE',  ( 1.224646799147353207E-16, -1.000000000000000000, 0.000000000000000000 ) ) ;
#38 = COORDINATED_UNIVERSAL_TIME_OFFSET ( 2, 0, .AHEAD. ) ;
#39 = EDGE_CURVE ( 'NONE', #189, #129, #45, .T. ) ;
#40 = FACE_OUTER_BOUND ( 'NONE', #96, .T. ) ;
#41 = DATE_AND_TIME ( #176, #151 ) ;
#42 = PERSON_AND_ORGANIZATION ( #13, #32 ) ;
#43 = DIRECTION ( 'NONE',  ( 0.000000000000000000, 0.000000000000000000, 1.000000000000000000 ) ) ;
#44 = APPROVAL_PERSON_ORGANIZATION ( #12, #173, #179 ) ;
#45 = CIRCLE ( 'NONE', #117, 12.69999999999999929 ) ;
#46 = UNCERTAINTY_MEASURE_WITH_UNIT (LENGTH_MEASURE( 1.000000000000000082E-05 ), #58, 'distance_accuracy_value', 'NONE');
#47 = DIRECTION ( 'NONE',  ( 1.000000000000000000, 0.000000000000000000, 0.000000000000000000 ) ) ;
#48 = APPROVAL ( #108, 'UNSPECIFIED' ) ;
#49 = ORIENTED_EDGE ( 'NONE', *, *, #150, .T. ) ;
#50 = PRODUCT_DEFINITION_FORMATION_WITH_SPECIFIED_SOURCE ( 'ANY', '', #162, .NOT_KNOWN. ) ;
#51 = ADVANCED_FACE ( 'NONE', ( #8 ), #28, .F. ) ;
#52 = LINE ( 'NONE', #175, #81 ) ;
#53 = AXIS2_PLACEMENT_3D ( 'NONE', #119, #166, #193 ) ;
#54 = DIRECTION ( 'NONE',  ( 1.000000000000000000, 0.000000000000000000, -0.000000000000000000 ) ) ;
#55 = DIRECTION ( 'NONE',  ( 0.000000000000000000, 0.000000000000000000, 1.000000000000000000 ) ) ;
#56 = CALENDAR_DATE ( 2021, 25, 2 ) ;
#57 =( NAMED_UNIT ( * ) SI_UNIT ( $, .STERADIAN. ) SOLID_ANGLE_UNIT ( ) );
#58 =( LENGTH_UNIT ( ) NAMED_UNIT ( * ) SI_UNIT ( .MILLI., .METRE. ) );
#59 = LOCAL_TIME ( 13, 22, 1.000000000000000000, #198 ) ;
#60 = ADVANCED_FACE ( 'NONE', ( #40 ), #91, .T. ) ;
#61 = CIRCLE ( 'NONE', #92, 2500.000000000000000 ) ;
#62 = VERTEX_POINT ( 'NONE', #101 ) ;
#63 = ORIENTED_EDGE ( 'NONE', *, *, #190, .T. ) ;
#64 = APPROVAL ( #102, 'UNSPECIFIED' ) ;
#65 = ORIENTED_EDGE ( 'NONE', *, *, #113, .F. ) ;
#66 = DIRECTION ( 'NONE',  ( 1.000000000000000000, 1.224646799147353207E-16, 0.000000000000000000 ) ) ;
#67 = APPROVAL_PERSON_ORGANIZATION ( #146, #48, #116 ) ;
#68 = CIRCLE ( 'NONE', #186, 2500.000000000000000 ) ;
#69 = DIRECTION ( 'NONE',  ( 1.000000000000000000, 0.000000000000000000, 0.000000000000000000 ) ) ;
#70 = MECHANICAL_CONTEXT ( 'NONE', #182, 'mechanical' ) ;
#71 = PERSON_AND_ORGANIZATION ( #13, #32 ) ;
#72 = PERSON_AND_ORGANIZATION ( #13, #32 ) ;
#73 = CC_DESIGN_PERSON_AND_ORGANIZATION_ASSIGNMENT ( #71, #88, ( #50 ) ) ;
#74 = CARTESIAN_POINT ( 'NONE',  ( 12.69999999999999929, 1.555301434917138433E-15, 0.000000000000000000 ) ) ;
#75 = CARTESIAN_POINT ( 'NONE',  ( -12.69999999999999929, 0.000000000000000000, 0.000000000000000000 ) ) ;
#76 = LINE ( 'NONE', #156, #133 ) ;
#77 = EDGE_CURVE ( 'NONE', #83, #189, #52, .T. ) ;
#78 = CARTESIAN_POINT ( 'NONE',  ( 3.070460552478948557E-13, 0.000000000000000000, 5.999999999999783284 ) ) ;
#79 = LOCAL_TIME ( 13, 22, 1.000000000000000000, #104 ) ;
#80 = ORIENTED_EDGE ( 'NONE', *, *, #39, .T. ) ;
#81 = VECTOR ( 'NONE', #35, 1000.000000000000000 ) ;
#82 = ORIENTED_EDGE ( 'NONE', *, *, #190, .F. ) ;
#83 = VERTEX_POINT ( 'NONE', #85 ) ;
#84 = PERSON_AND_ORGANIZATION_ROLE ( 'creator' ) ;
#85 = CARTESIAN_POINT ( 'NONE',  ( -12.70000000001203944, 0.000000000000000000, 5.999999999999783284 ) ) ;
#86 = CALENDAR_DATE ( 2021, 25, 2 ) ;
#87 = SPHERICAL_SURFACE ( 'NONE', #127, 2500.000000000000000 ) ;
#88 = PERSON_AND_ORGANIZATION_ROLE ( 'design_supplier' ) ;
#89 = CC_DESIGN_APPROVAL ( #64, ( #114 ) ) ;
#90 = COORDINATED_UNIVERSAL_TIME_OFFSET ( 2, 0, .AHEAD. ) ;
#91 = CYLINDRICAL_SURFACE ( 'NONE', #53, 12.69999999999999929 ) ;
#92 = AXIS2_PLACEMENT_3D ( 'NONE', #148, #37, #66 ) ;
#93 = CARTESIAN_POINT ( 'NONE',  ( 0.000000000000000000, 0.000000000000000000, 0.000000000000000000 ) ) ;
#94 = CC_DESIGN_PERSON_AND_ORGANIZATION_ASSIGNMENT ( #72, #106, ( #50 ) ) ;
#95 = EDGE_LOOP ( 'NONE', ( #141, #159 ) ) ;
#96 = EDGE_LOOP ( 'NONE', ( #22, #99, #6, #80 ) ) ;
#97 = APPROVAL_PERSON_ORGANIZATION ( #152, #64, #149 ) ;
#98 = PRODUCT_DEFINITION ( 'UNKNOWN', '', #50, #188 ) ;
#99 = ORIENTED_EDGE ( 'NONE', *, *, #113, .T. ) ;
#100 = PRODUCT_DEFINITION_SHAPE ( 'NONE', 'NONE',  #98 ) ;
#101 = CARTESIAN_POINT ( 'NONE',  ( 4.601269051413139424E-13, 0.000000000000000000, 5.967741791881309155 ) ) ;
#102 = APPROVAL_STATUS ( 'not_yet_approved' ) ;
#103 = DIRECTION ( 'NONE',  ( 1.000000000000000000, 0.000000000000000000, 0.000000000000000000 ) ) ;
#104 = COORDINATED_UNIVERSAL_TIME_OFFSET ( 2, 0, .AHEAD. ) ;
#105 = CARTESIAN_POINT ( 'NONE',  ( 3.070460552478948557E-13, 0.000000000000000000, 2505.967741791881508 ) ) ;
#106 = PERSON_AND_ORGANIZATION_ROLE ( 'creator' ) ;
#107 = DIRECTION ( 'NONE',  ( 0.000000000000000000, 0.000000000000000000, 1.000000000000000000 ) ) ;
#108 = APPROVAL_STATUS ( 'not_yet_approved' ) ;
#109 = DIRECTION ( 'NONE',  ( -1.000000000000000000, 0.000000000000000000, 0.000000000000000000 ) ) ;
#110 = DIRECTION ( 'NONE',  ( -0.000000000000000000, -0.000000000000000000, -1.000000000000000000 ) ) ;
#111 = CARTESIAN_POINT ( 'NONE',  ( 3.070460552478948557E-13, 0.000000000000000000, 2505.967741791881508 ) ) ;
#112 = ORIENTED_EDGE ( 'NONE', *, *, #170, .T. ) ;
#113 = EDGE_CURVE ( 'NONE', #143, #83, #142, .T. ) ;
#114 = SECURITY_CLASSIFICATION ( '', '', #195 ) ;
#115 = EDGE_LOOP ( 'NONE', ( #63, #49, #21, #144 ) ) ;
#116 = APPROVAL_ROLE ( '' ) ;
#117 = AXIS2_PLACEMENT_3D ( 'NONE', #121, #107, #103 ) ;
#118 = FACE_OUTER_BOUND ( 'NONE', #18, .T. ) ;
#119 = CARTESIAN_POINT ( 'NONE',  ( 0.000000000000000000, 0.000000000000000000, 6.000000000000000000 ) ) ;
#120 = CALENDAR_DATE ( 2021, 25, 2 ) ;
#121 = CARTESIAN_POINT ( 'NONE',  ( 0.000000000000000000, 0.000000000000000000, 0.000000000000000000 ) ) ;
#122 = PERSON_AND_ORGANIZATION_ROLE ( 'design_owner' ) ;
#123 = APPLICATION_CONTEXT ( 'configuration controlled 3d designs of mechanical parts and assemblies' ) ;
#124 = APPLICATION_PROTOCOL_DEFINITION ( 'international standard', 'config_control_design', 1994, #123 ) ;
#125 = DIRECTION ( 'NONE',  ( 0.000000000000000000, 1.000000000000000000, -0.000000000000000000 ) ) ;
#126 = CC_DESIGN_SECURITY_CLASSIFICATION ( #114, ( #50 ) ) ;
#127 = AXIS2_PLACEMENT_3D ( 'NONE', #178, #153, #24 ) ;
#128 = PRODUCT_RELATED_PRODUCT_CATEGORY ( 'detail', '', ( #162 ) ) ;
#129 = VERTEX_POINT ( 'NONE', #74 ) ;
#130 = FACE_OUTER_BOUND ( 'NONE', #145, .T. ) ;
#131 = CC_DESIGN_PERSON_AND_ORGANIZATION_ASSIGNMENT ( #26, #122, ( #162 ) ) ;
#132 = DATE_AND_TIME ( #56, #59 ) ;
#133 = VECTOR ( 'NONE', #185, 1000.000000000000000 ) ;
#134 = APPROVAL_STATUS ( 'not_yet_approved' ) ;
#135 = ADVANCED_FACE ( 'NONE', ( #138 ), #15, .T. ) ;
#136 = DATE_AND_TIME ( #86, #192 ) ;
#137 = CARTESIAN_POINT ( 'NONE',  ( 0.000000000000000000, 0.000000000000000000, 6.000000000000000000 ) ) ;
#138 = FACE_OUTER_BOUND ( 'NONE', #115, .T. ) ;
#139 =( NAMED_UNIT ( * ) PLANE_ANGLE_UNIT ( ) SI_UNIT ( $, .RADIAN. ) );
#140 =( GEOMETRIC_REPRESENTATION_CONTEXT ( 3 ) GLOBAL_UNCERTAINTY_ASSIGNED_CONTEXT ( ( #46 ) ) GLOBAL_UNIT_ASSIGNED_CONTEXT ( ( #58, #139, #57 ) ) REPRESENTATION_CONTEXT ( 'NONE', 'WORKASPACE' ) );
#141 = ORIENTED_EDGE ( 'NONE', *, *, #39, .F. ) ;
#142 = CIRCLE ( 'NONE', #196, 12.70000000001234852 ) ;
#143 = VERTEX_POINT ( 'NONE', #16 ) ;
#144 = ORIENTED_EDGE ( 'NONE', *, *, #77, .F. ) ;
#145 = EDGE_LOOP ( 'NONE', ( #31, #65, #112 ) ) ;
#146 = PERSON_AND_ORGANIZATION ( #13, #32 ) ;
#147 = PERSON_AND_ORGANIZATION_ROLE ( 'classification_officer' ) ;
#148 = CARTESIAN_POINT ( 'NONE',  ( 3.070460552478948557E-13, 0.000000000000000000, 2505.967741791881508 ) ) ;
#149 = APPROVAL_ROLE ( '' ) ;
#150 = EDGE_CURVE ( 'NONE', #143, #129, #76, .T. ) ;
#151 = LOCAL_TIME ( 13, 22, 1.000000000000000000, #23 ) ;
#152 = PERSON_AND_ORGANIZATION ( #13, #32 ) ;
#153 = DIRECTION ( 'NONE',  ( 0.000000000000000000, -1.000000000000000000, -0.000000000000000000 ) ) ;
#154 = APPROVAL_DATE_TIME ( #136, #173 ) ;
#155 = CLOSED_SHELL ( 'NONE', ( #17, #135, #60, #51, #3 ) ) ;
#156 = CARTESIAN_POINT ( 'NONE',  ( 12.69999999999999929, 1.555301434917138433E-15, 6.000000000000000000 ) ) ;
#157 = DIRECTION ( 'NONE',  ( 1.000000000000000000, 0.000000000000000000, 0.000000000000000000 ) ) ;
#158 = CARTESIAN_POINT ( 'NONE',  ( 3.070460552478948557E-13, 0.000000000000000000, 5.999999999999783284 ) ) ;
#159 = ORIENTED_EDGE ( 'NONE', *, *, #5, .F. ) ;
#160 = CC_DESIGN_APPROVAL ( #173, ( #98 ) ) ;
#161 = ORIENTED_EDGE ( 'NONE', *, *, #170, .F. ) ;
#162 = PRODUCT ( '010-0226E_N-BK7_PCV_window', '010-0226E_N-BK7_PCV_window', '', ( #70 ) ) ;
#163 = CC_DESIGN_PERSON_AND_ORGANIZATION_ASSIGNMENT ( #42, #84, ( #98 ) ) ;
#164 = SHAPE_DEFINITION_REPRESENTATION ( #100, #174 ) ;
#165 = CALENDAR_DATE ( 2021, 25, 2 ) ;
#166 = DIRECTION ( 'NONE',  ( -0.000000000000000000, -0.000000000000000000, -1.000000000000000000 ) ) ;
#167 = APPROVAL_DATE_TIME ( #200, #64 ) ;
#168 = AXIS2_PLACEMENT_3D ( 'NONE', #93, #43, #157 ) ;
#169 = CARTESIAN_POINT ( 'NONE',  ( 0.000000000000000000, 0.000000000000000000, 0.000000000000000000 ) ) ;
#170 = EDGE_CURVE ( 'NONE', #143, #62, #68, .T. ) ;
#171 = DIRECTION ( 'NONE',  ( 1.000000000000000000, 0.000000000000000000, 0.000000000000000000 ) ) ;
#172 = AXIS2_PLACEMENT_3D ( 'NONE', #169, #55, #69 ) ;
#173 = APPROVAL ( #134, 'UNSPECIFIED' ) ;
#174 = ADVANCED_BREP_SHAPE_REPRESENTATION ( '010-0226E_N-BK7_PCV_window', ( #25, #168 ), #140 ) ;
#175 = CARTESIAN_POINT ( 'NONE',  ( -12.69999999999999929, 0.000000000000000000, 6.000000000000000000 ) ) ;
#176 = CALENDAR_DATE ( 2021, 25, 2 ) ;
#177 = AXIS2_PLACEMENT_3D ( 'NONE', #105, #180, #194 ) ;
#178 = CARTESIAN_POINT ( 'NONE',  ( 3.070460552478948557E-13, 0.000000000000000000, 2505.967741791881508 ) ) ;
#179 = APPROVAL_ROLE ( '' ) ;
#180 = DIRECTION ( 'NONE',  ( 0.000000000000000000, -1.000000000000000000, -0.000000000000000000 ) ) ;
#181 = DATE_TIME_ROLE ( 'classification_date' ) ;
#182 = APPLICATION_CONTEXT ( 'configuration controlled 3d designs of mechanical parts and assemblies' ) ;
#183 = APPROVAL_DATE_TIME ( #41, #48 ) ;
#184 = CC_DESIGN_DATE_AND_TIME_ASSIGNMENT ( #14, #181, ( #114 ) ) ;
#185 = DIRECTION ( 'NONE',  ( -0.000000000000000000, -0.000000000000000000, -1.000000000000000000 ) ) ;
#186 = AXIS2_PLACEMENT_3D ( 'NONE', #111, #125, #201 ) ;
#187 = DIRECTION ( 'NONE',  ( -0.000000000000000000, -0.000000000000000000, -1.000000000000000000 ) ) ;
#188 = DESIGN_CONTEXT ( 'detailed design', #123, 'design' ) ;
#189 = VERTEX_POINT ( 'NONE', #75 ) ;
#190 = EDGE_CURVE ( 'NONE', #83, #143, #10, .T. ) ;
#191 = SPHERICAL_SURFACE ( 'NONE', #177, 2500.000000000000000 ) ;
#192 = LOCAL_TIME ( 13, 22, 1.000000000000000000, #38 ) ;
#193 = DIRECTION ( 'NONE',  ( -1.000000000000000000, 0.000000000000000000, 0.000000000000000000 ) ) ;
#194 = DIRECTION ( 'NONE',  ( 1.000000000000000000, 0.000000000000000000, 0.000000000000000000 ) ) ;
#195 = SECURITY_CLASSIFICATION_LEVEL ( 'unclassified' ) ;
#196 = AXIS2_PLACEMENT_3D ( 'NONE', #158, #187, #47 ) ;
#197 = DIRECTION ( 'NONE',  ( 0.000000000000000000, 0.000000000000000000, 1.000000000000000000 ) ) ;
#198 = COORDINATED_UNIVERSAL_TIME_OFFSET ( 2, 0, .AHEAD. ) ;
#199 = CC_DESIGN_PERSON_AND_ORGANIZATION_ASSIGNMENT ( #36, #147, ( #114 ) ) ;
#200 = DATE_AND_TIME ( #120, #9 ) ;
#201 = DIRECTION ( 'NONE',  ( 0.000000000000000000, 0.000000000000000000, 1.000000000000000000 ) ) ;
ENDSEC;
END-ISO-10303-21;
