ISO-10303-21;
HEADER;
FILE_DESCRIPTION (( 'STEP AP203' ),
    '1' );
FILE_NAME ('010-0222E_N-BK7_PCV_window.STEP',
    '2021-02-25T11:20:30',
    ( '' ),
    ( '' ),
    'SwSTEP 2.0',
    'SolidWorks 2019',
    '' );
FILE_SCHEMA (( 'CONFIG_CONTROL_DESIGN' ));
ENDSEC;

DATA;
#1 = DIRECTION ( 'NONE',  ( 0.000000000000000000, 0.000000000000000000, 1.000000000000000000 ) ) ;
#2 = AXIS2_PLACEMENT_3D ( 'NONE', #144, #195, #68 ) ;
#3 = FACE_OUTER_BOUND ( 'NONE', #143, .T. ) ;
#4 = DIRECTION ( 'NONE',  ( -1.000000000000000000, 0.000000000000000000, 0.000000000000000000 ) ) ;
#5 = PERSON_AND_ORGANIZATION_ROLE ( 'creator' ) ;
#6 = VERTEX_POINT ( 'NONE', #123 ) ;
#7 = FACE_OUTER_BOUND ( 'NONE', #146, .T. ) ;
#8 = EDGE_CURVE ( 'NONE', #28, #10, #73, .T. ) ;
#9 = ORIENTED_EDGE ( 'NONE', *, *, #58, .T. ) ;
#10 = VERTEX_POINT ( 'NONE', #95 ) ;
#11 = AXIS2_PLACEMENT_3D ( 'NONE', #62, #122, #189 ) ;
#12 = COORDINATED_UNIVERSAL_TIME_OFFSET ( 2, 0, .AHEAD. ) ;
#13 = CC_DESIGN_PERSON_AND_ORGANIZATION_ASSIGNMENT ( #140, #160, ( #157 ) ) ;
#14 = AXIS2_PLACEMENT_3D ( 'NONE', #36, #32, #134 ) ;
#15 = DIRECTION ( 'NONE',  ( 0.000000000000000000, 0.000000000000000000, 1.000000000000000000 ) ) ;
#16 = DIRECTION ( 'NONE',  ( -0.000000000000000000, -0.000000000000000000, -1.000000000000000000 ) ) ;
#17 = DATE_TIME_ROLE ( 'classification_date' ) ;
#18 = DIRECTION ( 'NONE',  ( 1.000000000000000000, 0.000000000000000000, 0.000000000000000000 ) ) ;
#19 = SPHERICAL_SURFACE ( 'NONE', #191, 1500.000000000000000 ) ;
#20 = ADVANCED_FACE ( 'NONE', ( #7 ), #112, .F. ) ;
#21 = PERSON_AND_ORGANIZATION ( #164, #177 ) ;
#22 = DIRECTION ( 'NONE',  ( 1.000000000000000000, 0.000000000000000000, -0.000000000000000000 ) ) ;
#23 = ORIENTED_EDGE ( 'NONE', *, *, #58, .F. ) ;
#24 = APPROVAL_PERSON_ORGANIZATION ( #155, #169, #37 ) ;
#25 = PERSON_AND_ORGANIZATION_ROLE ( 'creator' ) ;
#26 = AXIS2_PLACEMENT_3D ( 'NONE', #154, #121, #53 ) ;
#27 = MANIFOLD_SOLID_BREP ( 'Cut-Revolve1', #71 ) ;
#28 = VERTEX_POINT ( 'NONE', #126 ) ;
#29 = PRODUCT_DEFINITION_SHAPE ( 'NONE', 'NONE',  #113 ) ;
#30 = CC_DESIGN_PERSON_AND_ORGANIZATION_ASSIGNMENT ( #21, #114, ( #133 ) ) ;
#31 = CARTESIAN_POINT ( 'NONE',  ( 0.000000000000000000, 0.000000000000000000, 0.000000000000000000 ) ) ;
#32 = DIRECTION ( 'NONE',  ( 0.000000000000000000, 1.000000000000000000, -0.000000000000000000 ) ) ;
#33 = CIRCLE ( 'NONE', #93, 12.69999999999486562 ) ;
#34 = PERSON_AND_ORGANIZATION ( #164, #177 ) ;
#35 = CARTESIAN_POINT ( 'NONE',  ( 1.856154119295183591E-13, 0.000000000000000000, 1505.946235703133425 ) ) ;
#36 = CARTESIAN_POINT ( 'NONE',  ( 1.856154119295183591E-13, 0.000000000000000000, 1505.946235703133425 ) ) ;
#37 = APPROVAL_ROLE ( '' ) ;
#38 = PRODUCT_RELATED_PRODUCT_CATEGORY ( 'detail', '', ( #152 ) ) ;
#39 =( NAMED_UNIT ( * ) SI_UNIT ( $, .STERADIAN. ) SOLID_ANGLE_UNIT ( ) );
#40 = PERSON_AND_ORGANIZATION ( #164, #177 ) ;
#41 = DATE_AND_TIME ( #145, #75 ) ;
#42 = CC_DESIGN_APPROVAL ( #169, ( #133 ) ) ;
#43 = AXIS2_PLACEMENT_3D ( 'NONE', #31, #15, #179 ) ;
#44 = APPROVAL ( #102, 'UNSPECIFIED' ) ;
#45 = CC_DESIGN_APPROVAL ( #44, ( #113 ) ) ;
#46 = PLANE ( 'NONE',  #99 ) ;
#47 = VECTOR ( 'NONE', #51, 1000.000000000000000 ) ;
#48 = CC_DESIGN_PERSON_AND_ORGANIZATION_ASSIGNMENT ( #34, #5, ( #157 ) ) ;
#49 = FACE_OUTER_BOUND ( 'NONE', #181, .T. ) ;
#50 = CYLINDRICAL_SURFACE ( 'NONE', #26, 12.69999999999999929 ) ;
#51 = DIRECTION ( 'NONE',  ( -0.000000000000000000, -0.000000000000000000, -1.000000000000000000 ) ) ;
#52 = AXIS2_PLACEMENT_3D ( 'NONE', #78, #16, #4 ) ;
#53 = DIRECTION ( 'NONE',  ( -1.000000000000000000, 0.000000000000000000, 0.000000000000000000 ) ) ;
#54 = VERTEX_POINT ( 'NONE', #63 ) ;
#55 = PERSON_AND_ORGANIZATION_ROLE ( 'design_owner' ) ;
#56 = EDGE_CURVE ( 'NONE', #54, #10, #119, .T. ) ;
#57 = DIRECTION ( 'NONE',  ( 0.000000000000000000, 0.000000000000000000, 1.000000000000000000 ) ) ;
#58 = EDGE_CURVE ( 'NONE', #28, #6, #33, .T. ) ;
#59 = FACE_OUTER_BOUND ( 'NONE', #163, .T. ) ;
#60 = VECTOR ( 'NONE', #159, 1000.000000000000000 ) ;
#61 = CARTESIAN_POINT ( 'NONE',  ( 1.856154119295183591E-13, 0.000000000000000000, 1505.946235703133425 ) ) ;
#62 = CARTESIAN_POINT ( 'NONE',  ( 1.856154119295183591E-13, 0.000000000000000000, 1505.946235703133425 ) ) ;
#63 = CARTESIAN_POINT ( 'NONE',  ( -12.69999999999999929, 0.000000000000000000, 0.000000000000000000 ) ) ;
#64 = DATE_AND_TIME ( #82, #186 ) ;
#65 = ORIENTED_EDGE ( 'NONE', *, *, #81, .F. ) ;
#66 = ORIENTED_EDGE ( 'NONE', *, *, #8, .T. ) ;
#67 = ORIENTED_EDGE ( 'NONE', *, *, #193, .T. ) ;
#68 = DIRECTION ( 'NONE',  ( 1.000000000000000000, 0.000000000000000000, 0.000000000000000000 ) ) ;
#69 = CALENDAR_DATE ( 2021, 25, 2 ) ;
#70 = AXIS2_PLACEMENT_3D ( 'NONE', #116, #57, #199 ) ;
#71 = CLOSED_SHELL ( 'NONE', ( #148, #124, #72, #88, #20 ) ) ;
#72 = ADVANCED_FACE ( 'NONE', ( #188 ), #50, .T. ) ;
#73 = LINE ( 'NONE', #135, #47 ) ;
#74 = DIRECTION ( 'NONE',  ( -0.000000000000000000, -0.000000000000000000, -1.000000000000000000 ) ) ;
#75 = LOCAL_TIME ( 13, 20, 30.00000000000000000, #184 ) ;
#76 = ORIENTED_EDGE ( 'NONE', *, *, #167, .T. ) ;
#77 = CARTESIAN_POINT ( 'NONE',  ( 0.000000000000000000, 0.000000000000000000, 0.000000000000000000 ) ) ;
#78 = CARTESIAN_POINT ( 'NONE',  ( 0.000000000000000000, 0.000000000000000000, 6.000000000000000000 ) ) ;
#79 = COORDINATED_UNIVERSAL_TIME_OFFSET ( 2, 0, .AHEAD. ) ;
#80 = ORIENTED_EDGE ( 'NONE', *, *, #171, .T. ) ;
#81 = EDGE_CURVE ( 'NONE', #28, #162, #106, .T. ) ;
#82 = CALENDAR_DATE ( 2021, 25, 2 ) ;
#83 = CC_DESIGN_APPROVAL ( #118, ( #157 ) ) ;
#84 = ORIENTED_EDGE ( 'NONE', *, *, #171, .F. ) ;
#85 =( LENGTH_UNIT ( ) NAMED_UNIT ( * ) SI_UNIT ( .MILLI., .METRE. ) );
#86 = APPROVAL_STATUS ( 'not_yet_approved' ) ;
#87 = AXIS2_PLACEMENT_3D ( 'NONE', #77, #110, #138 ) ;
#88 = ADVANCED_FACE ( 'NONE', ( #59 ), #46, .F. ) ;
#89 = ORIENTED_EDGE ( 'NONE', *, *, #81, .T. ) ;
#90 = ORIENTED_EDGE ( 'NONE', *, *, #193, .F. ) ;
#91 = CALENDAR_DATE ( 2021, 25, 2 ) ;
#92 = DIRECTION ( 'NONE',  ( 1.000000000000000000, 0.000000000000000000, 0.000000000000000000 ) ) ;
#93 = AXIS2_PLACEMENT_3D ( 'NONE', #190, #74, #18 ) ;
#94 = SHAPE_DEFINITION_REPRESENTATION ( #29, #96 ) ;
#95 = CARTESIAN_POINT ( 'NONE',  ( 12.69999999999999929, 1.555301434917138433E-15, 0.000000000000000000 ) ) ;
#96 = ADVANCED_BREP_SHAPE_REPRESENTATION ( '010-0222E_N-BK7_PCV_window', ( #27, #70 ), #129 ) ;
#97 = EDGE_CURVE ( 'NONE', #6, #54, #136, .T. ) ;
#98 = ORIENTED_EDGE ( 'NONE', *, *, #56, .F. ) ;
#99 = AXIS2_PLACEMENT_3D ( 'NONE', #173, #1, #22 ) ;
#100 = ORIENTED_EDGE ( 'NONE', *, *, #8, .F. ) ;
#101 = APPROVAL_ROLE ( '' ) ;
#102 = APPROVAL_STATUS ( 'not_yet_approved' ) ;
#103 = PERSON_AND_ORGANIZATION ( #164, #177 ) ;
#104 = APPROVAL_PERSON_ORGANIZATION ( #117, #118, #101 ) ;
#105 = APPLICATION_PROTOCOL_DEFINITION ( 'international standard', 'config_control_design', 1994, #192 ) ;
#106 = CIRCLE ( 'NONE', #14, 1499.999999999999773 ) ;
#107 = ORIENTED_EDGE ( 'NONE', *, *, #56, .T. ) ;
#108 = CYLINDRICAL_SURFACE ( 'NONE', #52, 12.69999999999999929 ) ;
#109 = DIRECTION ( 'NONE',  ( 0.000000000000000000, -1.000000000000000000, -0.000000000000000000 ) ) ;
#110 = DIRECTION ( 'NONE',  ( 0.000000000000000000, 0.000000000000000000, 1.000000000000000000 ) ) ;
#111 = LOCAL_TIME ( 13, 20, 30.00000000000000000, #79 ) ;
#112 = SPHERICAL_SURFACE ( 'NONE', #132, 1500.000000000000000 ) ;
#113 = PRODUCT_DEFINITION ( 'UNKNOWN', '', #157, #161 ) ;
#114 = PERSON_AND_ORGANIZATION_ROLE ( 'classification_officer' ) ;
#115 = APPROVAL_DATE_TIME ( #180, #169 ) ;
#116 = CARTESIAN_POINT ( 'NONE',  ( 0.000000000000000000, 0.000000000000000000, 0.000000000000000000 ) ) ;
#117 = PERSON_AND_ORGANIZATION ( #164, #177 ) ;
#118 = APPROVAL ( #86, 'UNSPECIFIED' ) ;
#119 = CIRCLE ( 'NONE', #43, 12.69999999999999929 ) ;
#120 = DIRECTION ( 'NONE',  ( 0.000000000000000000, -1.000000000000000000, -0.000000000000000000 ) ) ;
#121 = DIRECTION ( 'NONE',  ( -0.000000000000000000, -0.000000000000000000, -1.000000000000000000 ) ) ;
#122 = DIRECTION ( 'NONE',  ( 1.224646799147353207E-16, -1.000000000000000000, 0.000000000000000000 ) ) ;
#123 = CARTESIAN_POINT ( 'NONE',  ( -12.69999999999468088, 0.000000000000000000, 6.000000000000005329 ) ) ;
#124 = ADVANCED_FACE ( 'NONE', ( #49 ), #108, .T. ) ;
#125 = DATE_AND_TIME ( #91, #201 ) ;
#126 = CARTESIAN_POINT ( 'NONE',  ( 12.69999999999505214, 1.555301434916835510E-15, 6.000000000000005329 ) ) ;
#127 = APPROVAL_DATE_TIME ( #64, #118 ) ;
#128 = CC_DESIGN_SECURITY_CLASSIFICATION ( #133, ( #157 ) ) ;
#129 =( GEOMETRIC_REPRESENTATION_CONTEXT ( 3 ) GLOBAL_UNCERTAINTY_ASSIGNED_CONTEXT ( ( #137 ) ) GLOBAL_UNIT_ASSIGNED_CONTEXT ( ( #85, #166, #39 ) ) REPRESENTATION_CONTEXT ( 'NONE', 'WORKASPACE' ) );
#130 = DATE_AND_TIME ( #69, #196 ) ;
#131 = CC_DESIGN_PERSON_AND_ORGANIZATION_ASSIGNMENT ( #103, #25, ( #113 ) ) ;
#132 = AXIS2_PLACEMENT_3D ( 'NONE', #61, #120, #141 ) ;
#133 = SECURITY_CLASSIFICATION ( '', '', #178 ) ;
#134 = DIRECTION ( 'NONE',  ( 0.000000000000000000, 0.000000000000000000, 1.000000000000000000 ) ) ;
#135 = CARTESIAN_POINT ( 'NONE',  ( 12.69999999999999929, 1.555301434917138433E-15, 6.000000000000000000 ) ) ;
#136 = LINE ( 'NONE', #156, #60 ) ;
#137 = UNCERTAINTY_MEASURE_WITH_UNIT (LENGTH_MEASURE( 1.000000000000000082E-05 ), #85, 'distance_accuracy_value', 'NONE');
#138 = DIRECTION ( 'NONE',  ( 1.000000000000000000, 0.000000000000000000, 0.000000000000000000 ) ) ;
#139 = CC_DESIGN_DATE_AND_TIME_ASSIGNMENT ( #125, #17, ( #133 ) ) ;
#140 = PERSON_AND_ORGANIZATION ( #164, #177 ) ;
#141 = DIRECTION ( 'NONE',  ( 1.000000000000000000, 0.000000000000000000, 0.000000000000000000 ) ) ;
#142 = COORDINATED_UNIVERSAL_TIME_OFFSET ( 2, 0, .AHEAD. ) ;
#143 = EDGE_LOOP ( 'NONE', ( #90, #76, #65 ) ) ;
#144 = CARTESIAN_POINT ( 'NONE',  ( 1.856154119295183591E-13, 0.000000000000000000, 6.000000000000005329 ) ) ;
#145 = CALENDAR_DATE ( 2021, 25, 2 ) ;
#146 = EDGE_LOOP ( 'NONE', ( #176, #23, #89 ) ) ;
#147 = APPROVAL_DATE_TIME ( #41, #44 ) ;
#148 = ADVANCED_FACE ( 'NONE', ( #3 ), #19, .F. ) ;
#149 = APPLICATION_CONTEXT ( 'configuration controlled 3d designs of mechanical parts and assemblies' ) ;
#150 = PERSON_AND_ORGANIZATION ( #164, #177 ) ;
#151 = CIRCLE ( 'NONE', #11, 1500.000000000000000 ) ;
#152 = PRODUCT ( '010-0222E_N-BK7_PCV_window', '010-0222E_N-BK7_PCV_window', '', ( #185 ) ) ;
#153 = CC_DESIGN_DATE_AND_TIME_ASSIGNMENT ( #130, #200, ( #113 ) ) ;
#154 = CARTESIAN_POINT ( 'NONE',  ( 0.000000000000000000, 0.000000000000000000, 6.000000000000000000 ) ) ;
#155 = PERSON_AND_ORGANIZATION ( #164, #177 ) ;
#156 = CARTESIAN_POINT ( 'NONE',  ( -12.69999999999999929, 0.000000000000000000, 6.000000000000000000 ) ) ;
#157 = PRODUCT_DEFINITION_FORMATION_WITH_SPECIFIED_SOURCE ( 'ANY', '', #152, .NOT_KNOWN. ) ;
#158 = CALENDAR_DATE ( 2021, 25, 2 ) ;
#159 = DIRECTION ( 'NONE',  ( -0.000000000000000000, -0.000000000000000000, -1.000000000000000000 ) ) ;
#160 = PERSON_AND_ORGANIZATION_ROLE ( 'design_supplier' ) ;
#161 = DESIGN_CONTEXT ( 'detailed design', #192, 'design' ) ;
#162 = VERTEX_POINT ( 'NONE', #174 ) ;
#163 = EDGE_LOOP ( 'NONE', ( #98, #84 ) ) ;
#164 = PERSON ( 'UNSPECIFIED', 'UNSPECIFIED', 'UNSPECIFIED', ('UNSPECIFIED'), ('UNSPECIFIED'), ('UNSPECIFIED') ) ;
#165 = COORDINATED_UNIVERSAL_TIME_OFFSET ( 2, 0, .AHEAD. ) ;
#166 =( NAMED_UNIT ( * ) PLANE_ANGLE_UNIT ( ) SI_UNIT ( $, .RADIAN. ) );
#167 = EDGE_CURVE ( 'NONE', #6, #162, #151, .T. ) ;
#168 = CIRCLE ( 'NONE', #2, 12.69999999999486562 ) ;
#169 = APPROVAL ( #175, 'UNSPECIFIED' ) ;
#170 = APPROVAL_PERSON_ORGANIZATION ( #40, #44, #183 ) ;
#171 = EDGE_CURVE ( 'NONE', #10, #54, #182, .T. ) ;
#172 = ORIENTED_EDGE ( 'NONE', *, *, #97, .F. ) ;
#173 = CARTESIAN_POINT ( 'NONE',  ( 0.000000000000000000, 0.000000000000000000, 0.000000000000000000 ) ) ;
#174 = CARTESIAN_POINT ( 'NONE',  ( 2.774639218655698212E-13, 0.000000000000000000, 5.946235703133462280 ) ) ;
#175 = APPROVAL_STATUS ( 'not_yet_approved' ) ;
#176 = ORIENTED_EDGE ( 'NONE', *, *, #167, .F. ) ;
#177 = ORGANIZATION ( 'UNSPECIFIED', 'UNSPECIFIED', '' ) ;
#178 = SECURITY_CLASSIFICATION_LEVEL ( 'unclassified' ) ;
#179 = DIRECTION ( 'NONE',  ( 1.000000000000000000, 0.000000000000000000, 0.000000000000000000 ) ) ;
#180 = DATE_AND_TIME ( #158, #111 ) ;
#181 = EDGE_LOOP ( 'NONE', ( #67, #66, #80, #172 ) ) ;
#182 = CIRCLE ( 'NONE', #87, 12.69999999999999929 ) ;
#183 = APPROVAL_ROLE ( '' ) ;
#184 = COORDINATED_UNIVERSAL_TIME_OFFSET ( 2, 0, .AHEAD. ) ;
#185 = MECHANICAL_CONTEXT ( 'NONE', #149, 'mechanical' ) ;
#186 = LOCAL_TIME ( 13, 20, 30.00000000000000000, #165 ) ;
#187 = CC_DESIGN_PERSON_AND_ORGANIZATION_ASSIGNMENT ( #150, #55, ( #152 ) ) ;
#188 = FACE_OUTER_BOUND ( 'NONE', #194, .T. ) ;
#189 = DIRECTION ( 'NONE',  ( 1.000000000000000000, 1.224646799147353207E-16, 0.000000000000000000 ) ) ;
#190 = CARTESIAN_POINT ( 'NONE',  ( 1.856154119295183591E-13, 0.000000000000000000, 6.000000000000005329 ) ) ;
#191 = AXIS2_PLACEMENT_3D ( 'NONE', #35, #109, #92 ) ;
#192 = APPLICATION_CONTEXT ( 'configuration controlled 3d designs of mechanical parts and assemblies' ) ;
#193 = EDGE_CURVE ( 'NONE', #6, #28, #168, .T. ) ;
#194 = EDGE_LOOP ( 'NONE', ( #100, #9, #198, #107 ) ) ;
#195 = DIRECTION ( 'NONE',  ( -0.000000000000000000, -0.000000000000000000, -1.000000000000000000 ) ) ;
#196 = LOCAL_TIME ( 13, 20, 30.00000000000000000, #12 ) ;
#197 = APPLICATION_PROTOCOL_DEFINITION ( 'international standard', 'config_control_design', 1994, #149 ) ;
#198 = ORIENTED_EDGE ( 'NONE', *, *, #97, .T. ) ;
#199 = DIRECTION ( 'NONE',  ( 1.000000000000000000, 0.000000000000000000, 0.000000000000000000 ) ) ;
#200 = DATE_TIME_ROLE ( 'creation_date' ) ;
#201 = LOCAL_TIME ( 13, 20, 30.00000000000000000, #142 ) ;
ENDSEC;
END-ISO-10303-21;
