ISO-10303-21;
HEADER;
FILE_DESCRIPTION (( 'STEP AP203' ),
    '1' );
FILE_NAME ('010-0220E_N-BK7_PCV_window.STEP',
    '2021-02-25T11:19:54',
    ( '' ),
    ( '' ),
    'SwSTEP 2.0',
    'SolidWorks 2019',
    '' );
FILE_SCHEMA (( 'CONFIG_CONTROL_DESIGN' ));
ENDSEC;

DATA;
#1 = CARTESIAN_POINT ( 'NONE',  ( 12.70000000000373319, 1.555301434917595775E-15, 6.000000000000005329 ) ) ;
#2 = APPROVAL_DATE_TIME ( #22, #21 ) ;
#3 = COORDINATED_UNIVERSAL_TIME_OFFSET ( 2, 0, .AHEAD. ) ;
#4 = ADVANCED_FACE ( 'NONE', ( #17 ), #64, .F. ) ;
#5 = PRODUCT ( '010-0220E_N-BK7_PCV_window', '010-0220E_N-BK7_PCV_window', '', ( #159 ) ) ;
#6 =( GEOMETRIC_REPRESENTATION_CONTEXT ( 3 ) GLOBAL_UNCERTAINTY_ASSIGNED_CONTEXT ( ( #74 ) ) GLOBAL_UNIT_ASSIGNED_CONTEXT ( ( #167, #154, #138 ) ) REPRESENTATION_CONTEXT ( 'NONE', 'WORKASPACE' ) );
#7 = CALENDAR_DATE ( 2021, 25, 2 ) ;
#8 = CALENDAR_DATE ( 2021, 25, 2 ) ;
#9 = VERTEX_POINT ( 'NONE', #125 ) ;
#10 = SHAPE_DEFINITION_REPRESENTATION ( #174, #178 ) ;
#11 = ORIENTED_EDGE ( 'NONE', *, *, #134, .F. ) ;
#12 = FACE_OUTER_BOUND ( 'NONE', #151, .T. ) ;
#13 = EDGE_CURVE ( 'NONE', #111, #35, #37, .T. ) ;
#14 = DIRECTION ( 'NONE',  ( -1.000000000000000000, 0.000000000000000000, 0.000000000000000000 ) ) ;
#15 = CARTESIAN_POINT ( 'NONE',  ( 0.000000000000000000, 0.000000000000000000, 6.000000000000000000 ) ) ;
#16 = EDGE_LOOP ( 'NONE', ( #158, #63, #102, #172 ) ) ;
#17 = FACE_OUTER_BOUND ( 'NONE', #140, .T. ) ;
#18 = DIRECTION ( 'NONE',  ( -0.000000000000000000, -0.000000000000000000, -1.000000000000000000 ) ) ;
#19 = CALENDAR_DATE ( 2021, 25, 2 ) ;
#20 = COORDINATED_UNIVERSAL_TIME_OFFSET ( 2, 0, .AHEAD. ) ;
#21 = APPROVAL ( #38, 'UNSPECIFIED' ) ;
#22 = DATE_AND_TIME ( #19, #118 ) ;
#23 = APPROVAL_ROLE ( '' ) ;
#24 = ORIENTED_EDGE ( 'NONE', *, *, #99, .F. ) ;
#25 = CIRCLE ( 'NONE', #170, 1000.000000000000000 ) ;
#26 = EDGE_LOOP ( 'NONE', ( #34, #194, #162, #117 ) ) ;
#27 = DIRECTION ( 'NONE',  ( 1.000000000000000000, 0.000000000000000000, 0.000000000000000000 ) ) ;
#28 = EDGE_CURVE ( 'NONE', #35, #77, #78, .T. ) ;
#29 = DIRECTION ( 'NONE',  ( 0.000000000000000000, 0.000000000000000000, 1.000000000000000000 ) ) ;
#30 = DESIGN_CONTEXT ( 'detailed design', #109, 'design' ) ;
#31 = FACE_OUTER_BOUND ( 'NONE', #26, .T. ) ;
#32 = DATE_TIME_ROLE ( 'creation_date' ) ;
#33 = AXIS2_PLACEMENT_3D ( 'NONE', #91, #153, #45 ) ;
#34 = ORIENTED_EDGE ( 'NONE', *, *, #13, .T. ) ;
#35 = VERTEX_POINT ( 'NONE', #1 ) ;
#36 = APPROVAL_ROLE ( '' ) ;
#37 = CIRCLE ( 'NONE', #55, 12.70000000000360707 ) ;
#38 = APPROVAL_STATUS ( 'not_yet_approved' ) ;
#39 = SECURITY_CLASSIFICATION_LEVEL ( 'unclassified' ) ;
#40 = CALENDAR_DATE ( 2021, 25, 2 ) ;
#41 = VECTOR ( 'NONE', #142, 1000.000000000000000 ) ;
#42 = COORDINATED_UNIVERSAL_TIME_OFFSET ( 2, 0, .AHEAD. ) ;
#43 = PERSON ( 'UNSPECIFIED', 'UNSPECIFIED', 'UNSPECIFIED', ('UNSPECIFIED'), ('UNSPECIFIED'), ('UNSPECIFIED') ) ;
#44 = PERSON_AND_ORGANIZATION ( #43, #66 ) ;
#45 = DIRECTION ( 'NONE',  ( 1.000000000000000000, 0.000000000000000000, 0.000000000000000000 ) ) ;
#46 = EDGE_CURVE ( 'NONE', #77, #9, #65, .T. ) ;
#47 = CC_DESIGN_APPROVAL ( #93, ( #131 ) ) ;
#48 = PERSON_AND_ORGANIZATION ( #43, #66 ) ;
#49 = DIRECTION ( 'NONE',  ( -0.000000000000000000, -0.000000000000000000, -1.000000000000000000 ) ) ;
#50 = DIRECTION ( 'NONE',  ( 1.000000000000000000, 0.000000000000000000, 0.000000000000000000 ) ) ;
#51 = APPLICATION_PROTOCOL_DEFINITION ( 'international standard', 'config_control_design', 1994, #109 ) ;
#52 = APPLICATION_PROTOCOL_DEFINITION ( 'international standard', 'config_control_design', 1994, #199 ) ;
#53 = PRODUCT_DEFINITION_FORMATION_WITH_SPECIFIED_SOURCE ( 'ANY', '', #5, .NOT_KNOWN. ) ;
#54 = COORDINATED_UNIVERSAL_TIME_OFFSET ( 2, 0, .AHEAD. ) ;
#55 = AXIS2_PLACEMENT_3D ( 'NONE', #157, #18, #112 ) ;
#56 = VERTEX_POINT ( 'NONE', #166 ) ;
#57 = PRODUCT_RELATED_PRODUCT_CATEGORY ( 'detail', '', ( #5 ) ) ;
#58 = DIRECTION ( 'NONE',  ( -1.000000000000000000, 0.000000000000000000, 0.000000000000000000 ) ) ;
#59 = AXIS2_PLACEMENT_3D ( 'NONE', #105, #72, #120 ) ;
#60 = CARTESIAN_POINT ( 'NONE',  ( -12.70000000000348273, 0.000000000000000000, 6.000000000000005329 ) ) ;
#61 = DIRECTION ( 'NONE',  ( 1.224646799147353207E-16, -1.000000000000000000, 0.000000000000000000 ) ) ;
#62 = APPROVAL ( #83, 'UNSPECIFIED' ) ;
#63 = ORIENTED_EDGE ( 'NONE', *, *, #107, .T. ) ;
#64 = PLANE ( 'NONE',  #124 ) ;
#65 = CIRCLE ( 'NONE', #183, 12.69999999999999929 ) ;
#66 = ORGANIZATION ( 'UNSPECIFIED', 'UNSPECIFIED', '' ) ;
#67 = PRODUCT_DEFINITION ( 'UNKNOWN', '', #53, #30 ) ;
#68 = APPROVAL_ROLE ( '' ) ;
#69 = LOCAL_TIME ( 13, 19, 54.00000000000000000, #54 ) ;
#70 = EDGE_LOOP ( 'NONE', ( #201, #177, #24 ) ) ;
#71 = CYLINDRICAL_SURFACE ( 'NONE', #129, 12.69999999999999929 ) ;
#72 = DIRECTION ( 'NONE',  ( 0.000000000000000000, -1.000000000000000000, -0.000000000000000000 ) ) ;
#73 = DIRECTION ( 'NONE',  ( -0.000000000000000000, -0.000000000000000000, -1.000000000000000000 ) ) ;
#74 = UNCERTAINTY_MEASURE_WITH_UNIT (LENGTH_MEASURE( 1.000000000000000082E-05 ), #167, 'distance_accuracy_value', 'NONE');
#75 = CIRCLE ( 'NONE', #145, 12.69999999999999929 ) ;
#76 = CC_DESIGN_PERSON_AND_ORGANIZATION_ASSIGNMENT ( #132, #116, ( #53 ) ) ;
#77 = VERTEX_POINT ( 'NONE', #181 ) ;
#78 = LINE ( 'NONE', #185, #41 ) ;
#79 = PERSON_AND_ORGANIZATION ( #43, #66 ) ;
#80 = AXIS2_PLACEMENT_3D ( 'NONE', #152, #165, #29 ) ;
#81 = PERSON_AND_ORGANIZATION_ROLE ( 'design_owner' ) ;
#82 = CC_DESIGN_DATE_AND_TIME_ASSIGNMENT ( #187, #32, ( #67 ) ) ;
#83 = APPROVAL_STATUS ( 'not_yet_approved' ) ;
#84 = APPROVAL_DATE_TIME ( #146, #62 ) ;
#85 = ORIENTED_EDGE ( 'NONE', *, *, #46, .F. ) ;
#86 = PERSON_AND_ORGANIZATION_ROLE ( 'classification_officer' ) ;
#87 = AXIS2_PLACEMENT_3D ( 'NONE', #92, #198, #155 ) ;
#88 = APPROVAL_PERSON_ORGANIZATION ( #48, #62, #23 ) ;
#89 = FACE_OUTER_BOUND ( 'NONE', #16, .T. ) ;
#90 = CIRCLE ( 'NONE', #80, 1000.000000000000227 ) ;
#91 = CARTESIAN_POINT ( 'NONE',  ( 1.249000902703301108E-13, 0.000000000000000000, 6.000000000000005329 ) ) ;
#92 = CARTESIAN_POINT ( 'NONE',  ( 1.249000902703301108E-13, 0.000000000000000000, 1005.919351747929682 ) ) ;
#93 = APPROVAL ( #163, 'UNSPECIFIED' ) ;
#94 = AXIS2_PLACEMENT_3D ( 'NONE', #15, #73, #14 ) ;
#95 = DIRECTION ( 'NONE',  ( 0.000000000000000000, 0.000000000000000000, 1.000000000000000000 ) ) ;
#96 = DIRECTION ( 'NONE',  ( 1.000000000000000000, 0.000000000000000000, -0.000000000000000000 ) ) ;
#97 = PERSON_AND_ORGANIZATION ( #43, #66 ) ;
#98 = CC_DESIGN_SECURITY_CLASSIFICATION ( #131, ( #53 ) ) ;
#99 = EDGE_CURVE ( 'NONE', #35, #56, #90, .T. ) ;
#100 = APPROVAL_DATE_TIME ( #175, #93 ) ;
#101 = DATE_AND_TIME ( #8, #189 ) ;
#102 = ORIENTED_EDGE ( 'NONE', *, *, #184, .T. ) ;
#103 = PERSON_AND_ORGANIZATION ( #43, #66 ) ;
#104 = VECTOR ( 'NONE', #49, 1000.000000000000000 ) ;
#105 = CARTESIAN_POINT ( 'NONE',  ( 1.249000902703301108E-13, 0.000000000000000000, 1005.919351747929682 ) ) ;
#106 = SPHERICAL_SURFACE ( 'NONE', #87, 1000.000000000000000 ) ;
#107 = EDGE_CURVE ( 'NONE', #35, #111, #188, .T. ) ;
#108 = MANIFOLD_SOLID_BREP ( 'Cut-Revolve1', #195 ) ;
#109 = APPLICATION_CONTEXT ( 'configuration controlled 3d designs of mechanical parts and assemblies' ) ;
#110 = CARTESIAN_POINT ( 'NONE',  ( 1.249000902703301108E-13, 0.000000000000000000, 1005.919351747929682 ) ) ;
#111 = VERTEX_POINT ( 'NONE', #60 ) ;
#112 = DIRECTION ( 'NONE',  ( 1.000000000000000000, 0.000000000000000000, 0.000000000000000000 ) ) ;
#113 = DIRECTION ( 'NONE',  ( 0.000000000000000000, 0.000000000000000000, 1.000000000000000000 ) ) ;
#114 = LOCAL_TIME ( 13, 19, 54.00000000000000000, #192 ) ;
#115 = ADVANCED_FACE ( 'NONE', ( #12 ), #179, .F. ) ;
#116 = PERSON_AND_ORGANIZATION_ROLE ( 'creator' ) ;
#117 = ORIENTED_EDGE ( 'NONE', *, *, #184, .F. ) ;
#118 = LOCAL_TIME ( 13, 19, 54.00000000000000000, #20 ) ;
#119 = FACE_OUTER_BOUND ( 'NONE', #70, .T. ) ;
#120 = DIRECTION ( 'NONE',  ( 1.000000000000000000, 0.000000000000000000, 0.000000000000000000 ) ) ;
#121 = LINE ( 'NONE', #182, #104 ) ;
#122 = APPROVAL_PERSON_ORGANIZATION ( #103, #93, #68 ) ;
#123 = CC_DESIGN_PERSON_AND_ORGANIZATION_ASSIGNMENT ( #191, #86, ( #131 ) ) ;
#124 = AXIS2_PLACEMENT_3D ( 'NONE', #171, #95, #96 ) ;
#125 = CARTESIAN_POINT ( 'NONE',  ( -12.69999999999999929, 0.000000000000000000, 0.000000000000000000 ) ) ;
#126 = CARTESIAN_POINT ( 'NONE',  ( 0.000000000000000000, 0.000000000000000000, 0.000000000000000000 ) ) ;
#127 = CALENDAR_DATE ( 2021, 25, 2 ) ;
#128 = PERSON_AND_ORGANIZATION ( #43, #66 ) ;
#129 = AXIS2_PLACEMENT_3D ( 'NONE', #196, #135, #58 ) ;
#130 = CC_DESIGN_DATE_AND_TIME_ASSIGNMENT ( #101, #149, ( #131 ) ) ;
#131 = SECURITY_CLASSIFICATION ( '', '', #39 ) ;
#132 = PERSON_AND_ORGANIZATION ( #43, #66 ) ;
#133 = ORIENTED_EDGE ( 'NONE', *, *, #107, .F. ) ;
#134 = EDGE_CURVE ( 'NONE', #9, #77, #75, .T. ) ;
#135 = DIRECTION ( 'NONE',  ( -0.000000000000000000, -0.000000000000000000, -1.000000000000000000 ) ) ;
#136 = CARTESIAN_POINT ( 'NONE',  ( 0.000000000000000000, 0.000000000000000000, 0.000000000000000000 ) ) ;
#137 = CYLINDRICAL_SURFACE ( 'NONE', #94, 12.69999999999999929 ) ;
#138 =( NAMED_UNIT ( * ) SI_UNIT ( $, .STERADIAN. ) SOLID_ANGLE_UNIT ( ) );
#139 = CC_DESIGN_APPROVAL ( #21, ( #67 ) ) ;
#140 = EDGE_LOOP ( 'NONE', ( #11, #85 ) ) ;
#141 = ADVANCED_FACE ( 'NONE', ( #89 ), #71, .T. ) ;
#142 = DIRECTION ( 'NONE',  ( -0.000000000000000000, -0.000000000000000000, -1.000000000000000000 ) ) ;
#143 = DIRECTION ( 'NONE',  ( 1.000000000000000000, 0.000000000000000000, 0.000000000000000000 ) ) ;
#144 = PERSON_AND_ORGANIZATION_ROLE ( 'creator' ) ;
#145 = AXIS2_PLACEMENT_3D ( 'NONE', #136, #197, #27 ) ;
#146 = DATE_AND_TIME ( #40, #114 ) ;
#147 = PERSON_AND_ORGANIZATION_ROLE ( 'design_supplier' ) ;
#148 = ORIENTED_EDGE ( 'NONE', *, *, #176, .F. ) ;
#149 = DATE_TIME_ROLE ( 'classification_date' ) ;
#150 = ADVANCED_FACE ( 'NONE', ( #119 ), #106, .F. ) ;
#151 = EDGE_LOOP ( 'NONE', ( #148, #133, #193 ) ) ;
#152 = CARTESIAN_POINT ( 'NONE',  ( 1.249000902703301108E-13, 0.000000000000000000, 1005.919351747929682 ) ) ;
#153 = DIRECTION ( 'NONE',  ( -0.000000000000000000, -0.000000000000000000, -1.000000000000000000 ) ) ;
#154 =( NAMED_UNIT ( * ) PLANE_ANGLE_UNIT ( ) SI_UNIT ( $, .RADIAN. ) );
#155 = DIRECTION ( 'NONE',  ( 1.000000000000000000, 0.000000000000000000, 0.000000000000000000 ) ) ;
#156 = ADVANCED_FACE ( 'NONE', ( #31 ), #137, .T. ) ;
#157 = CARTESIAN_POINT ( 'NONE',  ( 1.249000902703301108E-13, 0.000000000000000000, 6.000000000000005329 ) ) ;
#158 = ORIENTED_EDGE ( 'NONE', *, *, #28, .F. ) ;
#159 = MECHANICAL_CONTEXT ( 'NONE', #199, 'mechanical' ) ;
#160 = CC_DESIGN_PERSON_AND_ORGANIZATION_ASSIGNMENT ( #44, #147, ( #53 ) ) ;
#161 = CARTESIAN_POINT ( 'NONE',  ( 0.000000000000000000, 0.000000000000000000, 0.000000000000000000 ) ) ;
#162 = ORIENTED_EDGE ( 'NONE', *, *, #46, .T. ) ;
#163 = APPROVAL_STATUS ( 'not_yet_approved' ) ;
#164 = LOCAL_TIME ( 13, 19, 54.00000000000000000, #3 ) ;
#165 = DIRECTION ( 'NONE',  ( 0.000000000000000000, 1.000000000000000000, -0.000000000000000000 ) ) ;
#166 = CARTESIAN_POINT ( 'NONE',  ( 1.861324302276977858E-13, 0.000000000000000000, 5.919351747929679775 ) ) ;
#167 =( LENGTH_UNIT ( ) NAMED_UNIT ( * ) SI_UNIT ( .MILLI., .METRE. ) );
#168 = DIRECTION ( 'NONE',  ( 1.000000000000000000, 1.224646799147353207E-16, 0.000000000000000000 ) ) ;
#169 = CC_DESIGN_PERSON_AND_ORGANIZATION_ASSIGNMENT ( #128, #81, ( #5 ) ) ;
#170 = AXIS2_PLACEMENT_3D ( 'NONE', #110, #61, #168 ) ;
#171 = CARTESIAN_POINT ( 'NONE',  ( 0.000000000000000000, 0.000000000000000000, 0.000000000000000000 ) ) ;
#172 = ORIENTED_EDGE ( 'NONE', *, *, #134, .T. ) ;
#173 = CC_DESIGN_APPROVAL ( #62, ( #53 ) ) ;
#174 = PRODUCT_DEFINITION_SHAPE ( 'NONE', 'NONE',  #67 ) ;
#175 = DATE_AND_TIME ( #7, #69 ) ;
#176 = EDGE_CURVE ( 'NONE', #111, #56, #25, .T. ) ;
#177 = ORIENTED_EDGE ( 'NONE', *, *, #176, .T. ) ;
#178 = ADVANCED_BREP_SHAPE_REPRESENTATION ( '010-0220E_N-BK7_PCV_window', ( #108, #200 ), #6 ) ;
#179 = SPHERICAL_SURFACE ( 'NONE', #59, 1000.000000000000000 ) ;
#180 = APPROVAL_PERSON_ORGANIZATION ( #97, #21, #36 ) ;
#181 = CARTESIAN_POINT ( 'NONE',  ( 12.69999999999999929, 1.555301434917138433E-15, 0.000000000000000000 ) ) ;
#182 = CARTESIAN_POINT ( 'NONE',  ( -12.69999999999999929, 0.000000000000000000, 6.000000000000000000 ) ) ;
#183 = AXIS2_PLACEMENT_3D ( 'NONE', #126, #186, #50 ) ;
#184 = EDGE_CURVE ( 'NONE', #111, #9, #121, .T. ) ;
#185 = CARTESIAN_POINT ( 'NONE',  ( 12.69999999999999929, 1.555301434917138433E-15, 6.000000000000000000 ) ) ;
#186 = DIRECTION ( 'NONE',  ( 0.000000000000000000, 0.000000000000000000, 1.000000000000000000 ) ) ;
#187 = DATE_AND_TIME ( #127, #164 ) ;
#188 = CIRCLE ( 'NONE', #33, 12.70000000000360707 ) ;
#189 = LOCAL_TIME ( 13, 19, 54.00000000000000000, #42 ) ;
#190 = CC_DESIGN_PERSON_AND_ORGANIZATION_ASSIGNMENT ( #79, #144, ( #67 ) ) ;
#191 = PERSON_AND_ORGANIZATION ( #43, #66 ) ;
#192 = COORDINATED_UNIVERSAL_TIME_OFFSET ( 2, 0, .AHEAD. ) ;
#193 = ORIENTED_EDGE ( 'NONE', *, *, #99, .T. ) ;
#194 = ORIENTED_EDGE ( 'NONE', *, *, #28, .T. ) ;
#195 = CLOSED_SHELL ( 'NONE', ( #150, #156, #141, #4, #115 ) ) ;
#196 = CARTESIAN_POINT ( 'NONE',  ( 0.000000000000000000, 0.000000000000000000, 6.000000000000000000 ) ) ;
#197 = DIRECTION ( 'NONE',  ( 0.000000000000000000, 0.000000000000000000, 1.000000000000000000 ) ) ;
#198 = DIRECTION ( 'NONE',  ( 0.000000000000000000, -1.000000000000000000, -0.000000000000000000 ) ) ;
#199 = APPLICATION_CONTEXT ( 'configuration controlled 3d designs of mechanical parts and assemblies' ) ;
#200 = AXIS2_PLACEMENT_3D ( 'NONE', #161, #113, #143 ) ;
#201 = ORIENTED_EDGE ( 'NONE', *, *, #13, .F. ) ;
ENDSEC;
END-ISO-10303-21;
