ISO-10303-21;
HEADER;
FILE_DESCRIPTION (( 'STEP AP203' ),
    '1' );
FILE_NAME ('010-0217E_N-BK7_PCV_window.STEP',
    '2021-02-25T11:19:08',
    ( '' ),
    ( '' ),
    'SwSTEP 2.0',
    'SolidWorks 2019',
    '' );
FILE_SCHEMA (( 'CONFIG_CONTROL_DESIGN' ));
ENDSEC;

DATA;
#1 = AXIS2_PLACEMENT_3D ( 'NONE', #127, #130, #193 ) ;
#2 = CC_DESIGN_APPROVAL ( #82, ( #54 ) ) ;
#3 = VERTEX_POINT ( 'NONE', #6 ) ;
#4 = VERTEX_POINT ( 'NONE', #67 ) ;
#5 = DIRECTION ( 'NONE',  ( -0.000000000000000000, -0.000000000000000000, -1.000000000000000000 ) ) ;
#6 = CARTESIAN_POINT ( 'NONE',  ( -12.69999999999475371, 0.000000000000000000, 6.000000000000005329 ) ) ;
#7 = APPROVAL_ROLE ( '' ) ;
#8 = DIRECTION ( 'NONE',  ( 1.000000000000000000, 0.000000000000000000, 0.000000000000000000 ) ) ;
#9 = AXIS2_PLACEMENT_3D ( 'NONE', #36, #5, #162 ) ;
#10 =( LENGTH_UNIT ( ) NAMED_UNIT ( * ) SI_UNIT ( .MILLI., .METRE. ) );
#11 = DATE_AND_TIME ( #146, #61 ) ;
#12 = DIRECTION ( 'NONE',  ( 0.000000000000000000, 1.000000000000000000, -0.000000000000000000 ) ) ;
#13 = ADVANCED_FACE ( 'NONE', ( #35 ), #94, .F. ) ;
#14 = FACE_OUTER_BOUND ( 'NONE', #187, .T. ) ;
#15 = AXIS2_PLACEMENT_3D ( 'NONE', #59, #12, #117 ) ;
#16 = EDGE_CURVE ( 'NONE', #110, #108, #197, .T. ) ;
#17 = COORDINATED_UNIVERSAL_TIME_OFFSET ( 2, 0, .AHEAD. ) ;
#18 = SHAPE_DEFINITION_REPRESENTATION ( #119, #145 ) ;
#19 = ORIENTED_EDGE ( 'NONE', *, *, #16, .T. ) ;
#20 = CC_DESIGN_APPROVAL ( #183, ( #77 ) ) ;
#21 = LOCAL_TIME ( 13, 19, 8.000000000000000000, #123 ) ;
#22 = SPHERICAL_SURFACE ( 'NONE', #24, 900.0000000000000000 ) ;
#23 = CARTESIAN_POINT ( 'NONE',  ( 12.69999999999999929, 1.555301434917138433E-15, 6.000000000000000000 ) ) ;
#24 = AXIS2_PLACEMENT_3D ( 'NONE', #141, #113, #68 ) ;
#25 = CARTESIAN_POINT ( 'NONE',  ( 0.000000000000000000, 0.000000000000000000, 0.000000000000000000 ) ) ;
#26 = DIRECTION ( 'NONE',  ( 1.000000000000000000, 0.000000000000000000, -0.000000000000000000 ) ) ;
#27 = DIRECTION ( 'NONE',  ( 1.224646799147353207E-16, -1.000000000000000000, 0.000000000000000000 ) ) ;
#28 = AXIS2_PLACEMENT_3D ( 'NONE', #100, #27, #148 ) ;
#29 = LOCAL_TIME ( 13, 19, 8.000000000000000000, #17 ) ;
#30 = PERSON_AND_ORGANIZATION_ROLE ( 'design_supplier' ) ;
#31 = ADVANCED_FACE ( 'NONE', ( #86 ), #115, .T. ) ;
#32 = VECTOR ( 'NONE', #56, 1000.000000000000000 ) ;
#33 = UNCERTAINTY_MEASURE_WITH_UNIT (LENGTH_MEASURE( 1.000000000000000082E-05 ), #10, 'distance_accuracy_value', 'NONE');
#34 = SECURITY_CLASSIFICATION ( '', '', #46 ) ;
#35 = FACE_OUTER_BOUND ( 'NONE', #126, .T. ) ;
#36 = CARTESIAN_POINT ( 'NONE',  ( 0.000000000000000000, 0.000000000000000000, 6.000000000000000000 ) ) ;
#37 = CARTESIAN_POINT ( 'NONE',  ( 0.000000000000000000, 0.000000000000000000, 6.000000000000000000 ) ) ;
#38 =( NAMED_UNIT ( * ) PLANE_ANGLE_UNIT ( ) SI_UNIT ( $, .RADIAN. ) );
#39 = CARTESIAN_POINT ( 'NONE',  ( 0.000000000000000000, 0.000000000000000000, 0.000000000000000000 ) ) ;
#40 = MANIFOLD_SOLID_BREP ( 'Cut-Revolve1', #44 ) ;
#41 = DIRECTION ( 'NONE',  ( 1.000000000000000000, 0.000000000000000000, 0.000000000000000000 ) ) ;
#42 = CALENDAR_DATE ( 2021, 25, 2 ) ;
#43 = COORDINATED_UNIVERSAL_TIME_OFFSET ( 2, 0, .AHEAD. ) ;
#44 = CLOSED_SHELL ( 'NONE', ( #13, #96, #31, #153, #45 ) ) ;
#45 = ADVANCED_FACE ( 'NONE', ( #83 ), #22, .F. ) ;
#46 = SECURITY_CLASSIFICATION_LEVEL ( 'unclassified' ) ;
#47 = CC_DESIGN_APPROVAL ( #70, ( #34 ) ) ;
#48 = ORIENTED_EDGE ( 'NONE', *, *, #73, .F. ) ;
#49 = EDGE_CURVE ( 'NONE', #108, #4, #172, .T. ) ;
#50 = ORIENTED_EDGE ( 'NONE', *, *, #196, .F. ) ;
#51 = ORIENTED_EDGE ( 'NONE', *, *, #121, .F. ) ;
#52 = PERSON_AND_ORGANIZATION ( #191, #112 ) ;
#53 = AXIS2_PLACEMENT_3D ( 'NONE', #164, #161, #72 ) ;
#54 = PRODUCT_DEFINITION_FORMATION_WITH_SPECIFIED_SOURCE ( 'ANY', '', #63, .NOT_KNOWN. ) ;
#55 = CARTESIAN_POINT ( 'NONE',  ( 0.000000000000000000, 0.000000000000000000, 0.000000000000000000 ) ) ;
#56 = DIRECTION ( 'NONE',  ( -0.000000000000000000, -0.000000000000000000, -1.000000000000000000 ) ) ;
#57 = DIRECTION ( 'NONE',  ( -0.000000000000000000, -0.000000000000000000, -1.000000000000000000 ) ) ;
#58 = CARTESIAN_POINT ( 'NONE',  ( 1.127570259384924611E-13, 0.000000000000000000, 6.000000000000005329 ) ) ;
#59 = CARTESIAN_POINT ( 'NONE',  ( 1.127570259384924611E-13, 0.000000000000000000, 905.9103899833584137 ) ) ;
#60 = CIRCLE ( 'NONE', #137, 12.69999999999486562 ) ;
#61 = LOCAL_TIME ( 13, 19, 8.000000000000000000, #182 ) ;
#62 = APPROVAL_STATUS ( 'not_yet_approved' ) ;
#63 = PRODUCT ( '010-0217E_N-BK7_PCV_window', '010-0217E_N-BK7_PCV_window', '', ( #85 ) ) ;
#64 = AXIS2_PLACEMENT_3D ( 'NONE', #39, #95, #26 ) ;
#65 = CC_DESIGN_DATE_AND_TIME_ASSIGNMENT ( #102, #80, ( #77 ) ) ;
#66 = APPROVAL_STATUS ( 'not_yet_approved' ) ;
#67 = CARTESIAN_POINT ( 'NONE',  ( -12.69999999999999929, 0.000000000000000000, 0.000000000000000000 ) ) ;
#68 = DIRECTION ( 'NONE',  ( 1.000000000000000000, 0.000000000000000000, 0.000000000000000000 ) ) ;
#69 = DIRECTION ( 'NONE',  ( -0.000000000000000000, -0.000000000000000000, -1.000000000000000000 ) ) ;
#70 = APPROVAL ( #66, 'UNSPECIFIED' ) ;
#71 =( GEOMETRIC_REPRESENTATION_CONTEXT ( 3 ) GLOBAL_UNCERTAINTY_ASSIGNED_CONTEXT ( ( #33 ) ) GLOBAL_UNIT_ASSIGNED_CONTEXT ( ( #10, #38, #147 ) ) REPRESENTATION_CONTEXT ( 'NONE', 'WORKASPACE' ) );
#72 = DIRECTION ( 'NONE',  ( 1.000000000000000000, 0.000000000000000000, 0.000000000000000000 ) ) ;
#73 = EDGE_CURVE ( 'NONE', #4, #108, #158, .T. ) ;
#74 = PERSON_AND_ORGANIZATION ( #191, #112 ) ;
#75 = CIRCLE ( 'NONE', #15, 900.0000000000000000 ) ;
#76 = CC_DESIGN_SECURITY_CLASSIFICATION ( #34, ( #54 ) ) ;
#77 = PRODUCT_DEFINITION ( 'UNKNOWN', '', #54, #157 ) ;
#78 = CALENDAR_DATE ( 2021, 25, 2 ) ;
#79 = PERSON_AND_ORGANIZATION ( #191, #112 ) ;
#80 = DATE_TIME_ROLE ( 'creation_date' ) ;
#81 = VERTEX_POINT ( 'NONE', #144 ) ;
#82 = APPROVAL ( #168, 'UNSPECIFIED' ) ;
#83 = FACE_OUTER_BOUND ( 'NONE', #174, .T. ) ;
#84 = ORIENTED_EDGE ( 'NONE', *, *, #73, .T. ) ;
#85 = MECHANICAL_CONTEXT ( 'NONE', #129, 'mechanical' ) ;
#86 = FACE_OUTER_BOUND ( 'NONE', #177, .T. ) ;
#87 = CIRCLE ( 'NONE', #53, 12.69999999999486562 ) ;
#88 = APPLICATION_PROTOCOL_DEFINITION ( 'international standard', 'config_control_design', 1994, #129 ) ;
#89 = DATE_AND_TIME ( #42, #195 ) ;
#90 = PERSON_AND_ORGANIZATION ( #191, #112 ) ;
#91 = CC_DESIGN_PERSON_AND_ORGANIZATION_ASSIGNMENT ( #79, #150, ( #34 ) ) ;
#92 = ORIENTED_EDGE ( 'NONE', *, *, #159, .T. ) ;
#93 = ORIENTED_EDGE ( 'NONE', *, *, #124, .T. ) ;
#94 = SPHERICAL_SURFACE ( 'NONE', #101, 900.0000000000000000 ) ;
#95 = DIRECTION ( 'NONE',  ( 0.000000000000000000, 0.000000000000000000, 1.000000000000000000 ) ) ;
#96 = ADVANCED_FACE ( 'NONE', ( #198 ), #181, .T. ) ;
#97 = DIRECTION ( 'NONE',  ( 1.000000000000000000, 0.000000000000000000, 0.000000000000000000 ) ) ;
#98 = CARTESIAN_POINT ( 'NONE',  ( 12.69999999999497931, 1.555301434916831171E-15, 6.000000000000005329 ) ) ;
#99 = DIRECTION ( 'NONE',  ( 0.000000000000000000, 0.000000000000000000, 1.000000000000000000 ) ) ;
#100 = CARTESIAN_POINT ( 'NONE',  ( 1.127570259384924611E-13, 0.000000000000000000, 905.9103899833584137 ) ) ;
#101 = AXIS2_PLACEMENT_3D ( 'NONE', #160, #143, #8 ) ;
#102 = DATE_AND_TIME ( #78, #125 ) ;
#103 = APPROVAL_ROLE ( '' ) ;
#104 = CALENDAR_DATE ( 2021, 25, 2 ) ;
#105 = APPROVAL_PERSON_ORGANIZATION ( #122, #70, #171 ) ;
#106 = CC_DESIGN_PERSON_AND_ORGANIZATION_ASSIGNMENT ( #186, #173, ( #54 ) ) ;
#107 = ORIENTED_EDGE ( 'NONE', *, *, #49, .T. ) ;
#108 = VERTEX_POINT ( 'NONE', #133 ) ;
#109 = APPLICATION_CONTEXT ( 'configuration controlled 3d designs of mechanical parts and assemblies' ) ;
#110 = VERTEX_POINT ( 'NONE', #98 ) ;
#111 = LINE ( 'NONE', #194, #32 ) ;
#112 = ORGANIZATION ( 'UNSPECIFIED', 'UNSPECIFIED', '' ) ;
#113 = DIRECTION ( 'NONE',  ( 0.000000000000000000, -1.000000000000000000, -0.000000000000000000 ) ) ;
#114 = DIRECTION ( 'NONE',  ( -1.000000000000000000, 0.000000000000000000, 0.000000000000000000 ) ) ;
#115 = CYLINDRICAL_SURFACE ( 'NONE', #9, 12.69999999999999929 ) ;
#116 = PERSON_AND_ORGANIZATION ( #191, #112 ) ;
#117 = DIRECTION ( 'NONE',  ( 0.000000000000000000, 0.000000000000000000, 1.000000000000000000 ) ) ;
#118 = APPROVAL_DATE_TIME ( #11, #183 ) ;
#119 = PRODUCT_DEFINITION_SHAPE ( 'NONE', 'NONE',  #77 ) ;
#120 = CALENDAR_DATE ( 2021, 25, 2 ) ;
#121 = EDGE_CURVE ( 'NONE', #3, #4, #111, .T. ) ;
#122 = PERSON_AND_ORGANIZATION ( #191, #112 ) ;
#123 = COORDINATED_UNIVERSAL_TIME_OFFSET ( 2, 0, .AHEAD. ) ;
#124 = EDGE_CURVE ( 'NONE', #110, #81, #75, .T. ) ;
#125 = LOCAL_TIME ( 13, 19, 8.000000000000000000, #43 ) ;
#126 = EDGE_LOOP ( 'NONE', ( #50, #92, #155 ) ) ;
#127 = CARTESIAN_POINT ( 'NONE',  ( 0.000000000000000000, 0.000000000000000000, 0.000000000000000000 ) ) ;
#128 = CC_DESIGN_PERSON_AND_ORGANIZATION_ASSIGNMENT ( #90, #30, ( #54 ) ) ;
#129 = APPLICATION_CONTEXT ( 'configuration controlled 3d designs of mechanical parts and assemblies' ) ;
#130 = DIRECTION ( 'NONE',  ( 0.000000000000000000, 0.000000000000000000, 1.000000000000000000 ) ) ;
#131 = APPROVAL_PERSON_ORGANIZATION ( #149, #82, #103 ) ;
#132 = PERSON_AND_ORGANIZATION_ROLE ( 'creator' ) ;
#133 = CARTESIAN_POINT ( 'NONE',  ( 12.69999999999999929, 1.555301434917138433E-15, 0.000000000000000000 ) ) ;
#134 = APPROVAL_PERSON_ORGANIZATION ( #116, #183, #7 ) ;
#135 = PRODUCT_RELATED_PRODUCT_CATEGORY ( 'detail', '', ( #63 ) ) ;
#136 = DATE_AND_TIME ( #120, #29 ) ;
#137 = AXIS2_PLACEMENT_3D ( 'NONE', #58, #163, #41 ) ;
#138 = ORIENTED_EDGE ( 'NONE', *, *, #170, .T. ) ;
#139 = ORIENTED_EDGE ( 'NONE', *, *, #49, .F. ) ;
#140 = CC_DESIGN_PERSON_AND_ORGANIZATION_ASSIGNMENT ( #74, #132, ( #77 ) ) ;
#141 = CARTESIAN_POINT ( 'NONE',  ( 1.127570259384924611E-13, 0.000000000000000000, 905.9103899833584137 ) ) ;
#142 = APPLICATION_PROTOCOL_DEFINITION ( 'international standard', 'config_control_design', 1994, #109 ) ;
#143 = DIRECTION ( 'NONE',  ( 0.000000000000000000, -1.000000000000000000, -0.000000000000000000 ) ) ;
#144 = CARTESIAN_POINT ( 'NONE',  ( 1.678661319001233535E-13, 0.000000000000000000, 5.910389983358355082 ) ) ;
#145 = ADVANCED_BREP_SHAPE_REPRESENTATION ( '010-0217E_N-BK7_PCV_window', ( #40, #185 ), #71 ) ;
#146 = CALENDAR_DATE ( 2021, 25, 2 ) ;
#147 =( NAMED_UNIT ( * ) SI_UNIT ( $, .STERADIAN. ) SOLID_ANGLE_UNIT ( ) );
#148 = DIRECTION ( 'NONE',  ( 1.000000000000000000, 1.224646799147353207E-16, 0.000000000000000000 ) ) ;
#149 = PERSON_AND_ORGANIZATION ( #191, #112 ) ;
#150 = PERSON_AND_ORGANIZATION_ROLE ( 'classification_officer' ) ;
#151 = APPROVAL_DATE_TIME ( #89, #82 ) ;
#152 = ORIENTED_EDGE ( 'NONE', *, *, #196, .T. ) ;
#153 = ADVANCED_FACE ( 'NONE', ( #14 ), #167, .F. ) ;
#154 = VECTOR ( 'NONE', #57, 1000.000000000000000 ) ;
#155 = ORIENTED_EDGE ( 'NONE', *, *, #124, .F. ) ;
#156 = CC_DESIGN_DATE_AND_TIME_ASSIGNMENT ( #136, #201, ( #34 ) ) ;
#157 = DESIGN_CONTEXT ( 'detailed design', #109, 'design' ) ;
#158 = CIRCLE ( 'NONE', #165, 12.69999999999999929 ) ;
#159 = EDGE_CURVE ( 'NONE', #3, #81, #178, .T. ) ;
#160 = CARTESIAN_POINT ( 'NONE',  ( 1.127570259384924611E-13, 0.000000000000000000, 905.9103899833584137 ) ) ;
#161 = DIRECTION ( 'NONE',  ( -0.000000000000000000, -0.000000000000000000, -1.000000000000000000 ) ) ;
#162 = DIRECTION ( 'NONE',  ( -1.000000000000000000, 0.000000000000000000, 0.000000000000000000 ) ) ;
#163 = DIRECTION ( 'NONE',  ( -0.000000000000000000, -0.000000000000000000, -1.000000000000000000 ) ) ;
#164 = CARTESIAN_POINT ( 'NONE',  ( 1.127570259384924611E-13, 0.000000000000000000, 6.000000000000005329 ) ) ;
#165 = AXIS2_PLACEMENT_3D ( 'NONE', #55, #180, #97 ) ;
#166 = DIRECTION ( 'NONE',  ( 1.000000000000000000, 0.000000000000000000, 0.000000000000000000 ) ) ;
#167 = PLANE ( 'NONE',  #64 ) ;
#168 = APPROVAL_STATUS ( 'not_yet_approved' ) ;
#169 = APPROVAL_DATE_TIME ( #184, #70 ) ;
#170 = EDGE_CURVE ( 'NONE', #110, #3, #60, .T. ) ;
#171 = APPROVAL_ROLE ( '' ) ;
#172 = CIRCLE ( 'NONE', #1, 12.69999999999999929 ) ;
#173 = PERSON_AND_ORGANIZATION_ROLE ( 'creator' ) ;
#174 = EDGE_LOOP ( 'NONE', ( #175, #176, #93 ) ) ;
#175 = ORIENTED_EDGE ( 'NONE', *, *, #159, .F. ) ;
#176 = ORIENTED_EDGE ( 'NONE', *, *, #170, .F. ) ;
#177 = EDGE_LOOP ( 'NONE', ( #189, #138, #188, #84 ) ) ;
#178 = CIRCLE ( 'NONE', #28, 900.0000000000000000 ) ;
#179 = PERSON_AND_ORGANIZATION_ROLE ( 'design_owner' ) ;
#180 = DIRECTION ( 'NONE',  ( 0.000000000000000000, 0.000000000000000000, 1.000000000000000000 ) ) ;
#181 = CYLINDRICAL_SURFACE ( 'NONE', #200, 12.69999999999999929 ) ;
#182 = COORDINATED_UNIVERSAL_TIME_OFFSET ( 2, 0, .AHEAD. ) ;
#183 = APPROVAL ( #62, 'UNSPECIFIED' ) ;
#184 = DATE_AND_TIME ( #104, #21 ) ;
#185 = AXIS2_PLACEMENT_3D ( 'NONE', #25, #99, #166 ) ;
#186 = PERSON_AND_ORGANIZATION ( #191, #112 ) ;
#187 = EDGE_LOOP ( 'NONE', ( #48, #139 ) ) ;
#188 = ORIENTED_EDGE ( 'NONE', *, *, #121, .T. ) ;
#189 = ORIENTED_EDGE ( 'NONE', *, *, #16, .F. ) ;
#190 = CC_DESIGN_PERSON_AND_ORGANIZATION_ASSIGNMENT ( #52, #179, ( #63 ) ) ;
#191 = PERSON ( 'UNSPECIFIED', 'UNSPECIFIED', 'UNSPECIFIED', ('UNSPECIFIED'), ('UNSPECIFIED'), ('UNSPECIFIED') ) ;
#192 = EDGE_LOOP ( 'NONE', ( #152, #19, #107, #51 ) ) ;
#193 = DIRECTION ( 'NONE',  ( 1.000000000000000000, 0.000000000000000000, 0.000000000000000000 ) ) ;
#194 = CARTESIAN_POINT ( 'NONE',  ( -12.69999999999999929, 0.000000000000000000, 6.000000000000000000 ) ) ;
#195 = LOCAL_TIME ( 13, 19, 8.000000000000000000, #199 ) ;
#196 = EDGE_CURVE ( 'NONE', #3, #110, #87, .T. ) ;
#197 = LINE ( 'NONE', #23, #154 ) ;
#198 = FACE_OUTER_BOUND ( 'NONE', #192, .T. ) ;
#199 = COORDINATED_UNIVERSAL_TIME_OFFSET ( 2, 0, .AHEAD. ) ;
#200 = AXIS2_PLACEMENT_3D ( 'NONE', #37, #69, #114 ) ;
#201 = DATE_TIME_ROLE ( 'classification_date' ) ;
ENDSEC;
END-ISO-10303-21;
