ISO-10303-21;
HEADER;
FILE_DESCRIPTION (( 'STEP AP203' ),
    '1' );
FILE_NAME ('010-0216E_N-BK7_PCV_window.STEP',
    '2021-02-25T11:18:44',
    ( '' ),
    ( '' ),
    'SwSTEP 2.0',
    'SolidWorks 2019',
    '' );
FILE_SCHEMA (( 'CONFIG_CONTROL_DESIGN' ));
ENDSEC;

DATA;
#1 = DIRECTION ( 'NONE',  ( 1.000000000000000000, 0.000000000000000000, 0.000000000000000000 ) ) ;
#2 = FACE_OUTER_BOUND ( 'NONE', #68, .T. ) ;
#3 = DATE_AND_TIME ( #43, #140 ) ;
#4 = APPROVAL_STATUS ( 'not_yet_approved' ) ;
#5 = CIRCLE ( 'NONE', #141, 12.69999999999999929 ) ;
#6 = PERSON_AND_ORGANIZATION ( #92, #97 ) ;
#7 = ORIENTED_EDGE ( 'NONE', *, *, #24, .T. ) ;
#8 = ADVANCED_FACE ( 'NONE', ( #197 ), #113, .T. ) ;
#9 = ORIENTED_EDGE ( 'NONE', *, *, #186, .F. ) ;
#10 = AXIS2_PLACEMENT_3D ( 'NONE', #201, #55, #183 ) ;
#11 = VERTEX_POINT ( 'NONE', #31 ) ;
#12 = FACE_OUTER_BOUND ( 'NONE', #129, .T. ) ;
#13 = DIRECTION ( 'NONE',  ( 0.000000000000000000, 0.000000000000000000, 1.000000000000000000 ) ) ;
#14 = ADVANCED_FACE ( 'NONE', ( #2 ), #84, .F. ) ;
#15 = CC_DESIGN_APPROVAL ( #154, ( #85 ) ) ;
#16 = CARTESIAN_POINT ( 'NONE',  ( 9.887923813067800438E-14, 0.000000000000000000, 805.8991873980120317 ) ) ;
#17 = DIRECTION ( 'NONE',  ( 1.000000000000000000, 0.000000000000000000, 0.000000000000000000 ) ) ;
#18 = APPROVAL_PERSON_ORGANIZATION ( #6, #137, #135 ) ;
#19 = LINE ( 'NONE', #116, #128 ) ;
#20 = DATE_TIME_ROLE ( 'classification_date' ) ;
#21 = AXIS2_PLACEMENT_3D ( 'NONE', #165, #28, #151 ) ;
#22 = DIRECTION ( 'NONE',  ( -0.000000000000000000, -0.000000000000000000, -1.000000000000000000 ) ) ;
#23 = PERSON_AND_ORGANIZATION ( #92, #97 ) ;
#24 = EDGE_CURVE ( 'NONE', #11, #94, #19, .T. ) ;
#25 = ORIENTED_EDGE ( 'NONE', *, *, #80, .T. ) ;
#26 =( GEOMETRIC_REPRESENTATION_CONTEXT ( 3 ) GLOBAL_UNCERTAINTY_ASSIGNED_CONTEXT ( ( #114 ) ) GLOBAL_UNIT_ASSIGNED_CONTEXT ( ( #58, #134, #42 ) ) REPRESENTATION_CONTEXT ( 'NONE', 'WORKASPACE' ) );
#27 = CC_DESIGN_PERSON_AND_ORGANIZATION_ASSIGNMENT ( #63, #193, ( #192 ) ) ;
#28 = DIRECTION ( 'NONE',  ( 0.000000000000000000, -1.000000000000000000, -0.000000000000000000 ) ) ;
#29 = DIRECTION ( 'NONE',  ( 0.000000000000000000, -1.000000000000000000, -0.000000000000000000 ) ) ;
#30 = FACE_OUTER_BOUND ( 'NONE', #158, .T. ) ;
#31 = CARTESIAN_POINT ( 'NONE',  ( -12.70000000000788276, 0.000000000000000000, 6.000000000000005329 ) ) ;
#32 = APPLICATION_PROTOCOL_DEFINITION ( 'international standard', 'config_control_design', 1994, #188 ) ;
#33 = PERSON_AND_ORGANIZATION_ROLE ( 'design_supplier' ) ;
#34 = APPROVAL_DATE_TIME ( #106, #154 ) ;
#35 = AXIS2_PLACEMENT_3D ( 'NONE', #69, #133, #1 ) ;
#36 = EDGE_LOOP ( 'NONE', ( #76, #163, #7, #50 ) ) ;
#37 = ORIENTED_EDGE ( 'NONE', *, *, #157, .T. ) ;
#38 = CARTESIAN_POINT ( 'NONE',  ( 0.000000000000000000, 0.000000000000000000, 6.000000000000000000 ) ) ;
#39 = DIRECTION ( 'NONE',  ( -0.000000000000000000, -0.000000000000000000, -1.000000000000000000 ) ) ;
#40 = PRODUCT_DEFINITION ( 'UNKNOWN', '', #192, #180 ) ;
#41 = CARTESIAN_POINT ( 'NONE',  ( 1.478651100965721141E-13, 0.000000000000000000, 5.899187398011984662 ) ) ;
#42 =( NAMED_UNIT ( * ) SI_UNIT ( $, .STERADIAN. ) SOLID_ANGLE_UNIT ( ) );
#43 = CALENDAR_DATE ( 2021, 25, 2 ) ;
#44 = CALENDAR_DATE ( 2021, 25, 2 ) ;
#45 = MECHANICAL_CONTEXT ( 'NONE', #188, 'mechanical' ) ;
#46 = MANIFOLD_SOLID_BREP ( 'Cut-Revolve1', #152 ) ;
#47 = ADVANCED_BREP_SHAPE_REPRESENTATION ( '010-0216E_N-BK7_PCV_window', ( #46, #199 ), #26 ) ;
#48 = DATE_TIME_ROLE ( 'creation_date' ) ;
#49 = PRODUCT_RELATED_PRODUCT_CATEGORY ( 'detail', '', ( #120 ) ) ;
#50 = ORIENTED_EDGE ( 'NONE', *, *, #186, .T. ) ;
#51 = ORIENTED_EDGE ( 'NONE', *, *, #195, .F. ) ;
#52 = ORIENTED_EDGE ( 'NONE', *, *, #195, .T. ) ;
#53 = AXIS2_PLACEMENT_3D ( 'NONE', #104, #39, #17 ) ;
#54 = CARTESIAN_POINT ( 'NONE',  ( 12.69999999999999929, 1.555301434917138433E-15, 6.000000000000000000 ) ) ;
#55 = DIRECTION ( 'NONE',  ( -0.000000000000000000, -0.000000000000000000, -1.000000000000000000 ) ) ;
#56 = CARTESIAN_POINT ( 'NONE',  ( -12.69999999999999929, 0.000000000000000000, 0.000000000000000000 ) ) ;
#57 = AXIS2_PLACEMENT_3D ( 'NONE', #168, #119, #184 ) ;
#58 =( LENGTH_UNIT ( ) NAMED_UNIT ( * ) SI_UNIT ( .MILLI., .METRE. ) );
#59 = DIRECTION ( 'NONE',  ( 1.000000000000000000, 0.000000000000000000, -0.000000000000000000 ) ) ;
#60 = CALENDAR_DATE ( 2021, 25, 2 ) ;
#61 = PERSON_AND_ORGANIZATION ( #92, #97 ) ;
#62 = AXIS2_PLACEMENT_3D ( 'NONE', #132, #13, #59 ) ;
#63 = PERSON_AND_ORGANIZATION ( #92, #97 ) ;
#64 = PERSON_AND_ORGANIZATION_ROLE ( 'creator' ) ;
#65 = APPLICATION_PROTOCOL_DEFINITION ( 'international standard', 'config_control_design', 1994, #81 ) ;
#66 = ORIENTED_EDGE ( 'NONE', *, *, #102, .F. ) ;
#67 = AXIS2_PLACEMENT_3D ( 'NONE', #100, #29, #83 ) ;
#68 = EDGE_LOOP ( 'NONE', ( #51, #66, #112 ) ) ;
#69 = CARTESIAN_POINT ( 'NONE',  ( 0.000000000000000000, 0.000000000000000000, 0.000000000000000000 ) ) ;
#70 = DIRECTION ( 'NONE',  ( 0.000000000000000000, 1.000000000000000000, -0.000000000000000000 ) ) ;
#71 = CARTESIAN_POINT ( 'NONE',  ( 0.000000000000000000, 0.000000000000000000, 0.000000000000000000 ) ) ;
#72 = DIRECTION ( 'NONE',  ( 1.000000000000000000, 0.000000000000000000, 0.000000000000000000 ) ) ;
#73 = PERSON_AND_ORGANIZATION_ROLE ( 'design_owner' ) ;
#74 = EDGE_CURVE ( 'NONE', #98, #179, #182, .T. ) ;
#75 = COORDINATED_UNIVERSAL_TIME_OFFSET ( 2, 0, .AHEAD. ) ;
#76 = ORIENTED_EDGE ( 'NONE', *, *, #74, .F. ) ;
#77 = APPROVAL_STATUS ( 'not_yet_approved' ) ;
#78 = SECURITY_CLASSIFICATION_LEVEL ( 'unclassified' ) ;
#79 = LOCAL_TIME ( 13, 18, 44.00000000000000000, #160 ) ;
#80 = EDGE_CURVE ( 'NONE', #179, #94, #5, .T. ) ;
#81 = APPLICATION_CONTEXT ( 'configuration controlled 3d designs of mechanical parts and assemblies' ) ;
#82 = DIRECTION ( 'NONE',  ( -0.000000000000000000, -0.000000000000000000, -1.000000000000000000 ) ) ;
#83 = DIRECTION ( 'NONE',  ( 1.000000000000000000, 0.000000000000000000, 0.000000000000000000 ) ) ;
#84 = SPHERICAL_SURFACE ( 'NONE', #21, 800.0000000000000000 ) ;
#85 = SECURITY_CLASSIFICATION ( '', '', #78 ) ;
#86 = DIRECTION ( 'NONE',  ( 0.000000000000000000, 0.000000000000000000, 1.000000000000000000 ) ) ;
#87 = DIRECTION ( 'NONE',  ( -1.000000000000000000, 0.000000000000000000, 0.000000000000000000 ) ) ;
#88 = PERSON_AND_ORGANIZATION_ROLE ( 'classification_officer' ) ;
#89 = SHAPE_DEFINITION_REPRESENTATION ( #103, #47 ) ;
#90 = CARTESIAN_POINT ( 'NONE',  ( 0.000000000000000000, 0.000000000000000000, 6.000000000000000000 ) ) ;
#91 = CIRCLE ( 'NONE', #10, 12.70000000000797868 ) ;
#92 = PERSON ( 'UNSPECIFIED', 'UNSPECIFIED', 'UNSPECIFIED', ('UNSPECIFIED'), ('UNSPECIFIED'), ('UNSPECIFIED') ) ;
#93 = DATE_AND_TIME ( #60, #79 ) ;
#94 = VERTEX_POINT ( 'NONE', #56 ) ;
#95 = ORIENTED_EDGE ( 'NONE', *, *, #80, .F. ) ;
#96 = EDGE_LOOP ( 'NONE', ( #37, #196, #25, #194 ) ) ;
#97 = ORGANIZATION ( 'UNSPECIFIED', 'UNSPECIFIED', '' ) ;
#98 = VERTEX_POINT ( 'NONE', #121 ) ;
#99 = FACE_OUTER_BOUND ( 'NONE', #96, .T. ) ;
#100 = CARTESIAN_POINT ( 'NONE',  ( 9.887923813067800438E-14, 0.000000000000000000, 805.8991873980120317 ) ) ;
#101 = DIRECTION ( 'NONE',  ( -1.000000000000000000, 0.000000000000000000, 0.000000000000000000 ) ) ;
#102 = EDGE_CURVE ( 'NONE', #98, #11, #115, .T. ) ;
#103 = PRODUCT_DEFINITION_SHAPE ( 'NONE', 'NONE',  #40 ) ;
#104 = CARTESIAN_POINT ( 'NONE',  ( 9.887923813067800438E-14, 0.000000000000000000, 6.000000000000005329 ) ) ;
#105 = DATE_AND_TIME ( #44, #150 ) ;
#106 = DATE_AND_TIME ( #191, #161 ) ;
#107 = CC_DESIGN_SECURITY_CLASSIFICATION ( #85, ( #192 ) ) ;
#108 = DATE_AND_TIME ( #155, #142 ) ;
#109 = APPROVAL ( #4, 'UNSPECIFIED' ) ;
#110 = ADVANCED_FACE ( 'NONE', ( #12 ), #166, .F. ) ;
#111 = AXIS2_PLACEMENT_3D ( 'NONE', #38, #146, #101 ) ;
#112 = ORIENTED_EDGE ( 'NONE', *, *, #145, .T. ) ;
#113 = CYLINDRICAL_SURFACE ( 'NONE', #159, 12.69999999999999929 ) ;
#114 = UNCERTAINTY_MEASURE_WITH_UNIT (LENGTH_MEASURE( 1.000000000000000082E-05 ), #58, 'distance_accuracy_value', 'NONE');
#115 = CIRCLE ( 'NONE', #53, 12.70000000000797868 ) ;
#116 = CARTESIAN_POINT ( 'NONE',  ( -12.69999999999999929, 0.000000000000000000, 6.000000000000000000 ) ) ;
#117 = CC_DESIGN_PERSON_AND_ORGANIZATION_ASSIGNMENT ( #139, #88, ( #85 ) ) ;
#118 = ADVANCED_FACE ( 'NONE', ( #30 ), #149, .F. ) ;
#119 = DIRECTION ( 'NONE',  ( 1.224646799147353207E-16, -1.000000000000000000, 0.000000000000000000 ) ) ;
#120 = PRODUCT ( '010-0216E_N-BK7_PCV_window', '010-0216E_N-BK7_PCV_window', '', ( #45 ) ) ;
#121 = CARTESIAN_POINT ( 'NONE',  ( 12.70000000000807816, 1.555301434918127861E-15, 6.000000000000005329 ) ) ;
#122 = APPROVAL_DATE_TIME ( #3, #137 ) ;
#123 = AXIS2_PLACEMENT_3D ( 'NONE', #16, #70, #86 ) ;
#124 = APPROVAL_ROLE ( '' ) ;
#125 = PERSON_AND_ORGANIZATION ( #92, #97 ) ;
#126 = COORDINATED_UNIVERSAL_TIME_OFFSET ( 2, 0, .AHEAD. ) ;
#127 = APPROVAL_PERSON_ORGANIZATION ( #138, #109, #187 ) ;
#128 = VECTOR ( 'NONE', #82, 1000.000000000000000 ) ;
#129 = EDGE_LOOP ( 'NONE', ( #198, #52, #130 ) ) ;
#130 = ORIENTED_EDGE ( 'NONE', *, *, #145, .F. ) ;
#131 = ADVANCED_FACE ( 'NONE', ( #99 ), #167, .T. ) ;
#132 = CARTESIAN_POINT ( 'NONE',  ( 0.000000000000000000, 0.000000000000000000, 0.000000000000000000 ) ) ;
#133 = DIRECTION ( 'NONE',  ( 0.000000000000000000, 0.000000000000000000, 1.000000000000000000 ) ) ;
#134 =( NAMED_UNIT ( * ) PLANE_ANGLE_UNIT ( ) SI_UNIT ( $, .RADIAN. ) );
#135 = APPROVAL_ROLE ( '' ) ;
#136 = APPROVAL_STATUS ( 'not_yet_approved' ) ;
#137 = APPROVAL ( #77, 'UNSPECIFIED' ) ;
#138 = PERSON_AND_ORGANIZATION ( #92, #97 ) ;
#139 = PERSON_AND_ORGANIZATION ( #92, #97 ) ;
#140 = LOCAL_TIME ( 13, 18, 44.00000000000000000, #126 ) ;
#141 = AXIS2_PLACEMENT_3D ( 'NONE', #71, #144, #72 ) ;
#142 = LOCAL_TIME ( 13, 18, 44.00000000000000000, #173 ) ;
#143 = CC_DESIGN_DATE_AND_TIME_ASSIGNMENT ( #93, #48, ( #40 ) ) ;
#144 = DIRECTION ( 'NONE',  ( 0.000000000000000000, 0.000000000000000000, 1.000000000000000000 ) ) ;
#145 = EDGE_CURVE ( 'NONE', #98, #181, #174, .T. ) ;
#146 = DIRECTION ( 'NONE',  ( -0.000000000000000000, -0.000000000000000000, -1.000000000000000000 ) ) ;
#147 = CIRCLE ( 'NONE', #35, 12.69999999999999929 ) ;
#148 = DIRECTION ( 'NONE',  ( -0.000000000000000000, -0.000000000000000000, -1.000000000000000000 ) ) ;
#149 = PLANE ( 'NONE',  #62 ) ;
#150 = LOCAL_TIME ( 13, 18, 44.00000000000000000, #75 ) ;
#151 = DIRECTION ( 'NONE',  ( 1.000000000000000000, 0.000000000000000000, 0.000000000000000000 ) ) ;
#152 = CLOSED_SHELL ( 'NONE', ( #110, #131, #8, #118, #14 ) ) ;
#153 = DIRECTION ( 'NONE',  ( 1.000000000000000000, 0.000000000000000000, 0.000000000000000000 ) ) ;
#154 = APPROVAL ( #136, 'UNSPECIFIED' ) ;
#155 = CALENDAR_DATE ( 2021, 25, 2 ) ;
#156 = CC_DESIGN_PERSON_AND_ORGANIZATION_ASSIGNMENT ( #61, #33, ( #192 ) ) ;
#157 = EDGE_CURVE ( 'NONE', #11, #98, #91, .T. ) ;
#158 = EDGE_LOOP ( 'NONE', ( #9, #95 ) ) ;
#159 = AXIS2_PLACEMENT_3D ( 'NONE', #90, #22, #87 ) ;
#160 = COORDINATED_UNIVERSAL_TIME_OFFSET ( 2, 0, .AHEAD. ) ;
#161 = LOCAL_TIME ( 13, 18, 44.00000000000000000, #189 ) ;
#162 = VECTOR ( 'NONE', #148, 1000.000000000000000 ) ;
#163 = ORIENTED_EDGE ( 'NONE', *, *, #102, .T. ) ;
#164 = CARTESIAN_POINT ( 'NONE',  ( 12.69999999999999929, 1.555301434917138433E-15, 0.000000000000000000 ) ) ;
#165 = CARTESIAN_POINT ( 'NONE',  ( 9.887923813067800438E-14, 0.000000000000000000, 805.8991873980120317 ) ) ;
#166 = SPHERICAL_SURFACE ( 'NONE', #67, 800.0000000000000000 ) ;
#167 = CYLINDRICAL_SURFACE ( 'NONE', #111, 12.69999999999999929 ) ;
#168 = CARTESIAN_POINT ( 'NONE',  ( 9.887923813067800438E-14, 0.000000000000000000, 805.8991873980120317 ) ) ;
#169 = CC_DESIGN_APPROVAL ( #137, ( #40 ) ) ;
#170 = PERSON_AND_ORGANIZATION ( #92, #97 ) ;
#171 = CARTESIAN_POINT ( 'NONE',  ( 0.000000000000000000, 0.000000000000000000, 0.000000000000000000 ) ) ;
#172 = CC_DESIGN_PERSON_AND_ORGANIZATION_ASSIGNMENT ( #23, #64, ( #40 ) ) ;
#173 = COORDINATED_UNIVERSAL_TIME_OFFSET ( 2, 0, .AHEAD. ) ;
#174 = CIRCLE ( 'NONE', #123, 800.0000000000001137 ) ;
#175 = DIRECTION ( 'NONE',  ( 0.000000000000000000, 0.000000000000000000, 1.000000000000000000 ) ) ;
#176 = CIRCLE ( 'NONE', #57, 800.0000000000000000 ) ;
#177 = CC_DESIGN_DATE_AND_TIME_ASSIGNMENT ( #108, #20, ( #85 ) ) ;
#178 = CC_DESIGN_PERSON_AND_ORGANIZATION_ASSIGNMENT ( #170, #73, ( #120 ) ) ;
#179 = VERTEX_POINT ( 'NONE', #164 ) ;
#180 = DESIGN_CONTEXT ( 'detailed design', #81, 'design' ) ;
#181 = VERTEX_POINT ( 'NONE', #41 ) ;
#182 = LINE ( 'NONE', #54, #162 ) ;
#183 = DIRECTION ( 'NONE',  ( 1.000000000000000000, 0.000000000000000000, 0.000000000000000000 ) ) ;
#184 = DIRECTION ( 'NONE',  ( 1.000000000000000000, 1.224646799147353207E-16, 0.000000000000000000 ) ) ;
#185 = APPROVAL_DATE_TIME ( #105, #109 ) ;
#186 = EDGE_CURVE ( 'NONE', #94, #179, #147, .T. ) ;
#187 = APPROVAL_ROLE ( '' ) ;
#188 = APPLICATION_CONTEXT ( 'configuration controlled 3d designs of mechanical parts and assemblies' ) ;
#189 = COORDINATED_UNIVERSAL_TIME_OFFSET ( 2, 0, .AHEAD. ) ;
#190 = CC_DESIGN_APPROVAL ( #109, ( #192 ) ) ;
#191 = CALENDAR_DATE ( 2021, 25, 2 ) ;
#192 = PRODUCT_DEFINITION_FORMATION_WITH_SPECIFIED_SOURCE ( 'ANY', '', #120, .NOT_KNOWN. ) ;
#193 = PERSON_AND_ORGANIZATION_ROLE ( 'creator' ) ;
#194 = ORIENTED_EDGE ( 'NONE', *, *, #24, .F. ) ;
#195 = EDGE_CURVE ( 'NONE', #11, #181, #176, .T. ) ;
#196 = ORIENTED_EDGE ( 'NONE', *, *, #74, .T. ) ;
#197 = FACE_OUTER_BOUND ( 'NONE', #36, .T. ) ;
#198 = ORIENTED_EDGE ( 'NONE', *, *, #157, .F. ) ;
#199 = AXIS2_PLACEMENT_3D ( 'NONE', #171, #175, #153 ) ;
#200 = APPROVAL_PERSON_ORGANIZATION ( #125, #154, #124 ) ;
#201 = CARTESIAN_POINT ( 'NONE',  ( 9.887923813067800438E-14, 0.000000000000000000, 6.000000000000005329 ) ) ;
ENDSEC;
END-ISO-10303-21;
