ISO-10303-21;
HEADER;
FILE_DESCRIPTION (( 'STEP AP203' ),
    '1' );
FILE_NAME ('010-0215E_N-BK7_PCV_window.STEP',
    '2021-02-25T11:18:14',
    ( '' ),
    ( '' ),
    'SwSTEP 2.0',
    'SolidWorks 2019',
    '' );
FILE_SCHEMA (( 'CONFIG_CONTROL_DESIGN' ));
ENDSEC;

DATA;
#1 = EDGE_CURVE ( 'NONE', #163, #165, #96, .T. ) ;
#2 = DIRECTION ( 'NONE',  ( 1.000000000000000000, 0.000000000000000000, 0.000000000000000000 ) ) ;
#3 = AXIS2_PLACEMENT_3D ( 'NONE', #50, #138, #103 ) ;
#4 =( NAMED_UNIT ( * ) PLANE_ANGLE_UNIT ( ) SI_UNIT ( $, .RADIAN. ) );
#5 = APPROVAL_ROLE ( '' ) ;
#6 = APPROVAL_DATE_TIME ( #7, #44 ) ;
#7 = DATE_AND_TIME ( #191, #62 ) ;
#8 = APPROVAL ( #109, 'UNSPECIFIED' ) ;
#9 = ORIENTED_EDGE ( 'NONE', *, *, #54, .F. ) ;
#10 = LOCAL_TIME ( 13, 18, 14.00000000000000000, #126 ) ;
#11 = FACE_OUTER_BOUND ( 'NONE', #170, .T. ) ;
#12 = CYLINDRICAL_SURFACE ( 'NONE', #48, 12.69999999999999929 ) ;
#13 = AXIS2_PLACEMENT_3D ( 'NONE', #15, #153, #34 ) ;
#14 = DIRECTION ( 'NONE',  ( 0.000000000000000000, 0.000000000000000000, 1.000000000000000000 ) ) ;
#15 = CARTESIAN_POINT ( 'NONE',  ( 9.367506770274758310E-14, 0.000000000000000000, 6.000000000000005329 ) ) ;
#16 = SECURITY_CLASSIFICATION ( '', '', #81 ) ;
#17 = DIRECTION ( 'NONE',  ( -1.000000000000000000, 0.000000000000000000, 0.000000000000000000 ) ) ;
#18 = ADVANCED_FACE ( 'NONE', ( #99 ), #12, .T. ) ;
#19 = DIRECTION ( 'NONE',  ( 0.000000000000000000, 0.000000000000000000, 1.000000000000000000 ) ) ;
#20 = CARTESIAN_POINT ( 'NONE',  ( 0.000000000000000000, 0.000000000000000000, 6.000000000000000000 ) ) ;
#21 = PERSON_AND_ORGANIZATION ( #132, #118 ) ;
#22 = CC_DESIGN_PERSON_AND_ORGANIZATION_ASSIGNMENT ( #110, #68, ( #37 ) ) ;
#23 = APPROVAL_DATE_TIME ( #159, #8 ) ;
#24 = CLOSED_SHELL ( 'NONE', ( #40, #18, #188, #28, #90 ) ) ;
#25 = SHAPE_DEFINITION_REPRESENTATION ( #26, #123 ) ;
#26 = PRODUCT_DEFINITION_SHAPE ( 'NONE', 'NONE',  #150 ) ;
#27 = PERSON_AND_ORGANIZATION ( #132, #118 ) ;
#28 = ADVANCED_FACE ( 'NONE', ( #11 ), #168, .F. ) ;
#29 = ORIENTED_EDGE ( 'NONE', *, *, #74, .T. ) ;
#30 = CC_DESIGN_DATE_AND_TIME_ASSIGNMENT ( #94, #51, ( #16 ) ) ;
#31 = CIRCLE ( 'NONE', #13, 12.69999999999923546 ) ;
#32 = CARTESIAN_POINT ( 'NONE',  ( 12.69999999999932960, 1.555301434917097609E-15, 6.000000000000005329 ) ) ;
#33 = DIRECTION ( 'NONE',  ( 0.000000000000000000, 0.000000000000000000, 1.000000000000000000 ) ) ;
#34 = DIRECTION ( 'NONE',  ( 1.000000000000000000, 0.000000000000000000, 0.000000000000000000 ) ) ;
#35 = FACE_OUTER_BOUND ( 'NONE', #144, .T. ) ;
#36 = CALENDAR_DATE ( 2021, 25, 2 ) ;
#37 = PRODUCT_DEFINITION_FORMATION_WITH_SPECIFIED_SOURCE ( 'ANY', '', #111, .NOT_KNOWN. ) ;
#38 = PERSON_AND_ORGANIZATION ( #132, #118 ) ;
#39 = APPROVAL_ROLE ( '' ) ;
#40 = ADVANCED_FACE ( 'NONE', ( #87 ), #72, .F. ) ;
#41 =( GEOMETRIC_REPRESENTATION_CONTEXT ( 3 ) GLOBAL_UNCERTAINTY_ASSIGNED_CONTEXT ( ( #83 ) ) GLOBAL_UNIT_ASSIGNED_CONTEXT ( ( #140, #4, #201 ) ) REPRESENTATION_CONTEXT ( 'NONE', 'WORKASPACE' ) );
#42 = VERTEX_POINT ( 'NONE', #183 ) ;
#43 = DIRECTION ( 'NONE',  ( -0.000000000000000000, -0.000000000000000000, -1.000000000000000000 ) ) ;
#44 = APPROVAL ( #113, 'UNSPECIFIED' ) ;
#45 = VERTEX_POINT ( 'NONE', #32 ) ;
#46 = DIRECTION ( 'NONE',  ( 1.000000000000000000, 0.000000000000000000, 0.000000000000000000 ) ) ;
#47 = ORIENTED_EDGE ( 'NONE', *, *, #143, .F. ) ;
#48 = AXIS2_PLACEMENT_3D ( 'NONE', #134, #43, #147 ) ;
#49 = PERSON_AND_ORGANIZATION_ROLE ( 'design_owner' ) ;
#50 = CARTESIAN_POINT ( 'NONE',  ( 9.367506770274758310E-14, 0.000000000000000000, 755.8924656242387528 ) ) ;
#51 = DATE_TIME_ROLE ( 'classification_date' ) ;
#52 = PERSON_AND_ORGANIZATION_ROLE ( 'creator' ) ;
#53 = LOCAL_TIME ( 13, 18, 14.00000000000000000, #178 ) ;
#54 = EDGE_CURVE ( 'NONE', #45, #180, #179, .T. ) ;
#55 = PERSON_AND_ORGANIZATION_ROLE ( 'creator' ) ;
#56 = AXIS2_PLACEMENT_3D ( 'NONE', #171, #33, #116 ) ;
#57 = MANIFOLD_SOLID_BREP ( 'Cut-Revolve1', #24 ) ;
#58 = ORIENTED_EDGE ( 'NONE', *, *, #167, .T. ) ;
#59 = ORIENTED_EDGE ( 'NONE', *, *, #1, .T. ) ;
#60 = EDGE_CURVE ( 'NONE', #165, #163, #64, .T. ) ;
#61 = CARTESIAN_POINT ( 'NONE',  ( 9.367506770274758310E-14, 0.000000000000000000, 755.8924656242387528 ) ) ;
#62 = LOCAL_TIME ( 13, 18, 14.00000000000000000, #189 ) ;
#63 = DIRECTION ( 'NONE',  ( -0.000000000000000000, -0.000000000000000000, -1.000000000000000000 ) ) ;
#64 = CIRCLE ( 'NONE', #86, 12.69999999999999929 ) ;
#65 = CC_DESIGN_PERSON_AND_ORGANIZATION_ASSIGNMENT ( #21, #52, ( #37 ) ) ;
#66 = CARTESIAN_POINT ( 'NONE',  ( 12.69999999999999929, 1.555301434917138433E-15, 0.000000000000000000 ) ) ;
#67 = DATE_AND_TIME ( #69, #10 ) ;
#68 = PERSON_AND_ORGANIZATION_ROLE ( 'design_supplier' ) ;
#69 = CALENDAR_DATE ( 2021, 25, 2 ) ;
#70 = ORIENTED_EDGE ( 'NONE', *, *, #182, .F. ) ;
#71 = ORIENTED_EDGE ( 'NONE', *, *, #1, .F. ) ;
#72 = SPHERICAL_SURFACE ( 'NONE', #162, 750.0000000000000000 ) ;
#73 = AXIS2_PLACEMENT_3D ( 'NONE', #172, #105, #89 ) ;
#74 = EDGE_CURVE ( 'NONE', #180, #163, #75, .T. ) ;
#75 = LINE ( 'NONE', #199, #169 ) ;
#76 = FACE_OUTER_BOUND ( 'NONE', #181, .T. ) ;
#77 = LOCAL_TIME ( 13, 18, 14.00000000000000000, #141 ) ;
#78 = APPLICATION_PROTOCOL_DEFINITION ( 'international standard', 'config_control_design', 1994, #98 ) ;
#79 = APPROVAL ( #125, 'UNSPECIFIED' ) ;
#80 = AXIS2_PLACEMENT_3D ( 'NONE', #88, #173, #154 ) ;
#81 = SECURITY_CLASSIFICATION_LEVEL ( 'unclassified' ) ;
#82 = DATE_TIME_ROLE ( 'creation_date' ) ;
#83 = UNCERTAINTY_MEASURE_WITH_UNIT (LENGTH_MEASURE( 1.000000000000000082E-05 ), #140, 'distance_accuracy_value', 'NONE');
#84 = ORIENTED_EDGE ( 'NONE', *, *, #54, .T. ) ;
#85 = DIRECTION ( 'NONE',  ( 1.000000000000000000, 0.000000000000000000, 0.000000000000000000 ) ) ;
#86 = AXIS2_PLACEMENT_3D ( 'NONE', #101, #14, #115 ) ;
#87 = FACE_OUTER_BOUND ( 'NONE', #196, .T. ) ;
#88 = CARTESIAN_POINT ( 'NONE',  ( 9.367506770274758310E-14, 0.000000000000000000, 755.8924656242387528 ) ) ;
#89 = DIRECTION ( 'NONE',  ( 0.000000000000000000, 0.000000000000000000, 1.000000000000000000 ) ) ;
#90 = ADVANCED_FACE ( 'NONE', ( #76 ), #133, .F. ) ;
#91 = CYLINDRICAL_SURFACE ( 'NONE', #104, 12.69999999999999929 ) ;
#92 = APPROVAL_ROLE ( '' ) ;
#93 = CC_DESIGN_APPROVAL ( #79, ( #150 ) ) ;
#94 = DATE_AND_TIME ( #177, #77 ) ;
#95 = DESIGN_CONTEXT ( 'detailed design', #186, 'design' ) ;
#96 = CIRCLE ( 'NONE', #131, 12.69999999999999929 ) ;
#97 = ORIENTED_EDGE ( 'NONE', *, *, #106, .T. ) ;
#98 = APPLICATION_CONTEXT ( 'configuration controlled 3d designs of mechanical parts and assemblies' ) ;
#99 = FACE_OUTER_BOUND ( 'NONE', #166, .T. ) ;
#100 = CC_DESIGN_PERSON_AND_ORGANIZATION_ASSIGNMENT ( #112, #108, ( #16 ) ) ;
#101 = CARTESIAN_POINT ( 'NONE',  ( 0.000000000000000000, 0.000000000000000000, 0.000000000000000000 ) ) ;
#102 = ORIENTED_EDGE ( 'NONE', *, *, #60, .F. ) ;
#103 = DIRECTION ( 'NONE',  ( 1.000000000000000000, 0.000000000000000000, 0.000000000000000000 ) ) ;
#104 = AXIS2_PLACEMENT_3D ( 'NONE', #20, #63, #17 ) ;
#105 = DIRECTION ( 'NONE',  ( 0.000000000000000000, 1.000000000000000000, -0.000000000000000000 ) ) ;
#106 = EDGE_CURVE ( 'NONE', #180, #45, #31, .T. ) ;
#107 = APPLICATION_PROTOCOL_DEFINITION ( 'international standard', 'config_control_design', 1994, #186 ) ;
#108 = PERSON_AND_ORGANIZATION_ROLE ( 'classification_officer' ) ;
#109 = APPROVAL_STATUS ( 'not_yet_approved' ) ;
#110 = PERSON_AND_ORGANIZATION ( #132, #118 ) ;
#111 = PRODUCT ( '010-0215E_N-BK7_PCV_window', '010-0215E_N-BK7_PCV_window', '', ( #187 ) ) ;
#112 = PERSON_AND_ORGANIZATION ( #132, #118 ) ;
#113 = APPROVAL_STATUS ( 'not_yet_approved' ) ;
#114 = CIRCLE ( 'NONE', #80, 750.0000000000000000 ) ;
#115 = DIRECTION ( 'NONE',  ( 1.000000000000000000, 0.000000000000000000, 0.000000000000000000 ) ) ;
#116 = DIRECTION ( 'NONE',  ( 1.000000000000000000, 0.000000000000000000, -0.000000000000000000 ) ) ;
#117 = DIRECTION ( 'NONE',  ( -0.000000000000000000, -0.000000000000000000, -1.000000000000000000 ) ) ;
#118 = ORGANIZATION ( 'UNSPECIFIED', 'UNSPECIFIED', '' ) ;
#119 = ORIENTED_EDGE ( 'NONE', *, *, #143, .T. ) ;
#120 = CIRCLE ( 'NONE', #73, 750.0000000000000000 ) ;
#121 = PERSON_AND_ORGANIZATION ( #132, #118 ) ;
#122 = DIRECTION ( 'NONE',  ( -0.000000000000000000, -0.000000000000000000, -1.000000000000000000 ) ) ;
#123 = ADVANCED_BREP_SHAPE_REPRESENTATION ( '010-0215E_N-BK7_PCV_window', ( #57, #135 ), #41 ) ;
#124 = CC_DESIGN_SECURITY_CLASSIFICATION ( #16, ( #37 ) ) ;
#125 = APPROVAL_STATUS ( 'not_yet_approved' ) ;
#126 = COORDINATED_UNIVERSAL_TIME_OFFSET ( 2, 0, .AHEAD. ) ;
#127 = LOCAL_TIME ( 13, 18, 14.00000000000000000, #160 ) ;
#128 = ORIENTED_EDGE ( 'NONE', *, *, #106, .F. ) ;
#129 = ORIENTED_EDGE ( 'NONE', *, *, #167, .F. ) ;
#130 = ORIENTED_EDGE ( 'NONE', *, *, #182, .T. ) ;
#131 = AXIS2_PLACEMENT_3D ( 'NONE', #185, #184, #46 ) ;
#132 = PERSON ( 'UNSPECIFIED', 'UNSPECIFIED', 'UNSPECIFIED', ('UNSPECIFIED'), ('UNSPECIFIED'), ('UNSPECIFIED') ) ;
#133 = SPHERICAL_SURFACE ( 'NONE', #3, 750.0000000000000000 ) ;
#134 = CARTESIAN_POINT ( 'NONE',  ( 0.000000000000000000, 0.000000000000000000, 6.000000000000000000 ) ) ;
#135 = AXIS2_PLACEMENT_3D ( 'NONE', #155, #19, #2 ) ;
#136 = CARTESIAN_POINT ( 'NONE',  ( -12.69999999999914309, 0.000000000000000000, 6.000000000000005329 ) ) ;
#137 = CC_DESIGN_DATE_AND_TIME_ASSIGNMENT ( #193, #82, ( #150 ) ) ;
#138 = DIRECTION ( 'NONE',  ( 0.000000000000000000, -1.000000000000000000, -0.000000000000000000 ) ) ;
#139 = VECTOR ( 'NONE', #122, 1000.000000000000000 ) ;
#140 =( LENGTH_UNIT ( ) NAMED_UNIT ( * ) SI_UNIT ( .MILLI., .METRE. ) );
#141 = COORDINATED_UNIVERSAL_TIME_OFFSET ( 2, 0, .AHEAD. ) ;
#142 = PERSON_AND_ORGANIZATION ( #132, #118 ) ;
#143 = EDGE_CURVE ( 'NONE', #45, #165, #174, .T. ) ;
#144 = EDGE_LOOP ( 'NONE', ( #47, #84, #29, #59 ) ) ;
#145 = APPROVAL_PERSON_ORGANIZATION ( #27, #44, #92 ) ;
#146 = DIRECTION ( 'NONE',  ( 1.000000000000000000, 0.000000000000000000, 0.000000000000000000 ) ) ;
#147 = DIRECTION ( 'NONE',  ( -1.000000000000000000, 0.000000000000000000, 0.000000000000000000 ) ) ;
#148 = CARTESIAN_POINT ( 'NONE',  ( 9.367506770274758310E-14, 0.000000000000000000, 6.000000000000005329 ) ) ;
#149 = AXIS2_PLACEMENT_3D ( 'NONE', #148, #151, #146 ) ;
#150 = PRODUCT_DEFINITION ( 'UNKNOWN', '', #37, #95 ) ;
#151 = DIRECTION ( 'NONE',  ( -0.000000000000000000, -0.000000000000000000, -1.000000000000000000 ) ) ;
#152 = ORIENTED_EDGE ( 'NONE', *, *, #60, .T. ) ;
#153 = DIRECTION ( 'NONE',  ( -0.000000000000000000, -0.000000000000000000, -1.000000000000000000 ) ) ;
#154 = DIRECTION ( 'NONE',  ( 1.000000000000000000, 1.224646799147353207E-16, 0.000000000000000000 ) ) ;
#155 = CARTESIAN_POINT ( 'NONE',  ( 0.000000000000000000, 0.000000000000000000, 0.000000000000000000 ) ) ;
#156 = CARTESIAN_POINT ( 'NONE',  ( 12.69999999999999929, 1.555301434917138433E-15, 6.000000000000000000 ) ) ;
#157 = PERSON_AND_ORGANIZATION ( #132, #118 ) ;
#158 = APPROVAL_PERSON_ORGANIZATION ( #142, #79, #5 ) ;
#159 = DATE_AND_TIME ( #175, #127 ) ;
#160 = COORDINATED_UNIVERSAL_TIME_OFFSET ( 2, 0, .AHEAD. ) ;
#161 = CC_DESIGN_PERSON_AND_ORGANIZATION_ASSIGNMENT ( #157, #55, ( #150 ) ) ;
#162 = AXIS2_PLACEMENT_3D ( 'NONE', #61, #200, #85 ) ;
#163 = VERTEX_POINT ( 'NONE', #190 ) ;
#164 = CC_DESIGN_APPROVAL ( #44, ( #37 ) ) ;
#165 = VERTEX_POINT ( 'NONE', #66 ) ;
#166 = EDGE_LOOP ( 'NONE', ( #97, #119, #152, #198 ) ) ;
#167 = EDGE_CURVE ( 'NONE', #45, #42, #120, .T. ) ;
#168 = PLANE ( 'NONE',  #56 ) ;
#169 = VECTOR ( 'NONE', #117, 1000.000000000000000 ) ;
#170 = EDGE_LOOP ( 'NONE', ( #71, #102 ) ) ;
#171 = CARTESIAN_POINT ( 'NONE',  ( 0.000000000000000000, 0.000000000000000000, 0.000000000000000000 ) ) ;
#172 = CARTESIAN_POINT ( 'NONE',  ( 9.367506770274758310E-14, 0.000000000000000000, 755.8924656242387528 ) ) ;
#173 = DIRECTION ( 'NONE',  ( 1.224646799147353207E-16, -1.000000000000000000, 0.000000000000000000 ) ) ;
#174 = LINE ( 'NONE', #156, #139 ) ;
#175 = CALENDAR_DATE ( 2021, 25, 2 ) ;
#176 = APPROVAL_PERSON_ORGANIZATION ( #38, #8, #39 ) ;
#177 = CALENDAR_DATE ( 2021, 25, 2 ) ;
#178 = COORDINATED_UNIVERSAL_TIME_OFFSET ( 2, 0, .AHEAD. ) ;
#179 = CIRCLE ( 'NONE', #149, 12.69999999999923546 ) ;
#180 = VERTEX_POINT ( 'NONE', #136 ) ;
#181 = EDGE_LOOP ( 'NONE', ( #70, #9, #58 ) ) ;
#182 = EDGE_CURVE ( 'NONE', #180, #42, #114, .T. ) ;
#183 = CARTESIAN_POINT ( 'NONE',  ( 1.395993226707733141E-13, 0.000000000000000000, 5.892465624238729660 ) ) ;
#184 = DIRECTION ( 'NONE',  ( 0.000000000000000000, 0.000000000000000000, 1.000000000000000000 ) ) ;
#185 = CARTESIAN_POINT ( 'NONE',  ( 0.000000000000000000, 0.000000000000000000, 0.000000000000000000 ) ) ;
#186 = APPLICATION_CONTEXT ( 'configuration controlled 3d designs of mechanical parts and assemblies' ) ;
#187 = MECHANICAL_CONTEXT ( 'NONE', #98, 'mechanical' ) ;
#188 = ADVANCED_FACE ( 'NONE', ( #35 ), #91, .T. ) ;
#189 = COORDINATED_UNIVERSAL_TIME_OFFSET ( 2, 0, .AHEAD. ) ;
#190 = CARTESIAN_POINT ( 'NONE',  ( -12.69999999999999929, 0.000000000000000000, 0.000000000000000000 ) ) ;
#191 = CALENDAR_DATE ( 2021, 25, 2 ) ;
#192 = CC_DESIGN_APPROVAL ( #8, ( #16 ) ) ;
#193 = DATE_AND_TIME ( #36, #53 ) ;
#194 = APPROVAL_DATE_TIME ( #67, #79 ) ;
#195 = PRODUCT_RELATED_PRODUCT_CATEGORY ( 'detail', '', ( #111 ) ) ;
#196 = EDGE_LOOP ( 'NONE', ( #128, #130, #129 ) ) ;
#197 = CC_DESIGN_PERSON_AND_ORGANIZATION_ASSIGNMENT ( #121, #49, ( #111 ) ) ;
#198 = ORIENTED_EDGE ( 'NONE', *, *, #74, .F. ) ;
#199 = CARTESIAN_POINT ( 'NONE',  ( -12.69999999999999929, 0.000000000000000000, 6.000000000000000000 ) ) ;
#200 = DIRECTION ( 'NONE',  ( 0.000000000000000000, -1.000000000000000000, -0.000000000000000000 ) ) ;
#201 =( NAMED_UNIT ( * ) SI_UNIT ( $, .STERADIAN. ) SOLID_ANGLE_UNIT ( ) );
ENDSEC;
END-ISO-10303-21;
