ISO-10303-21;
HEADER;
FILE_DESCRIPTION (( 'STEP AP203' ),
    '1' );
FILE_NAME ('010-0214E_N-BK7_PCV_window.STEP',
    '2021-02-25T11:17:31',
    ( '' ),
    ( '' ),
    'SwSTEP 2.0',
    'SolidWorks 2019',
    '' );
FILE_SCHEMA (( 'CONFIG_CONTROL_DESIGN' ));
ENDSEC;

DATA;
#1 = APPLICATION_CONTEXT ( 'configuration controlled 3d designs of mechanical parts and assemblies' ) ;
#2 = EDGE_CURVE ( 'NONE', #179, #49, #106, .T. ) ;
#3 = ORIENTED_EDGE ( 'NONE', *, *, #2, .F. ) ;
#4 = COORDINATED_UNIVERSAL_TIME_OFFSET ( 2, 0, .AHEAD. ) ;
#5 = DIRECTION ( 'NONE',  ( 1.000000000000000000, 0.000000000000000000, 0.000000000000000000 ) ) ;
#6 = DIRECTION ( 'NONE',  ( 1.000000000000000000, 0.000000000000000000, 0.000000000000000000 ) ) ;
#7 = DIRECTION ( 'NONE',  ( -0.000000000000000000, -0.000000000000000000, -1.000000000000000000 ) ) ;
#8 = LOCAL_TIME ( 13, 17, 31.00000000000000000, #180 ) ;
#9 = CARTESIAN_POINT ( 'NONE',  ( 8.673617379884035472E-14, 0.000000000000000000, 705.8847833750924110 ) ) ;
#10 = EDGE_CURVE ( 'NONE', #163, #151, #131, .T. ) ;
#11 = DIRECTION ( 'NONE',  ( 1.000000000000000000, 0.000000000000000000, 0.000000000000000000 ) ) ;
#12 = DESIGN_CONTEXT ( 'detailed design', #1, 'design' ) ;
#13 = DIRECTION ( 'NONE',  ( -1.000000000000000000, 0.000000000000000000, 0.000000000000000000 ) ) ;
#14 = APPROVAL_DATE_TIME ( #92, #27 ) ;
#15 = EDGE_LOOP ( 'NONE', ( #84, #168, #115, #120 ) ) ;
#16 = COORDINATED_UNIVERSAL_TIME_OFFSET ( 2, 0, .AHEAD. ) ;
#17 = AXIS2_PLACEMENT_3D ( 'NONE', #57, #109, #72 ) ;
#18 = APPROVAL_PERSON_ORGANIZATION ( #21, #31, #164 ) ;
#19 = DIRECTION ( 'NONE',  ( -0.000000000000000000, -0.000000000000000000, -1.000000000000000000 ) ) ;
#20 = ORIENTED_EDGE ( 'NONE', *, *, #10, .T. ) ;
#21 = PERSON_AND_ORGANIZATION ( #157, #160 ) ;
#22 = PLANE ( 'NONE',  #191 ) ;
#23 = APPROVAL_DATE_TIME ( #128, #31 ) ;
#24 = ADVANCED_FACE ( 'NONE', ( #42 ), #138, .T. ) ;
#25 = CIRCLE ( 'NONE', #33, 12.69999999999705231 ) ;
#26 = CARTESIAN_POINT ( 'NONE',  ( 0.000000000000000000, 0.000000000000000000, 6.000000000000000000 ) ) ;
#27 = APPROVAL ( #139, 'UNSPECIFIED' ) ;
#28 = DIRECTION ( 'NONE',  ( -0.000000000000000000, -0.000000000000000000, -1.000000000000000000 ) ) ;
#29 = PERSON_AND_ORGANIZATION ( #157, #160 ) ;
#30 = APPROVAL_ROLE ( '' ) ;
#31 = APPROVAL ( #64, 'UNSPECIFIED' ) ;
#32 = APPROVAL_PERSON_ORGANIZATION ( #181, #77, #40 ) ;
#33 = AXIS2_PLACEMENT_3D ( 'NONE', #98, #48, #5 ) ;
#34 = CARTESIAN_POINT ( 'NONE',  ( 12.69999999999999929, 1.555301434917138433E-15, 6.000000000000000000 ) ) ;
#35 = DIRECTION ( 'NONE',  ( 1.000000000000000000, 0.000000000000000000, 0.000000000000000000 ) ) ;
#36 = EDGE_LOOP ( 'NONE', ( #52, #20, #188 ) ) ;
#37 = CALENDAR_DATE ( 2021, 25, 2 ) ;
#38 = CC_DESIGN_PERSON_AND_ORGANIZATION_ASSIGNMENT ( #79, #54, ( #78 ) ) ;
#39 = DIRECTION ( 'NONE',  ( 0.000000000000000000, -1.000000000000000000, -0.000000000000000000 ) ) ;
#40 = APPROVAL_ROLE ( '' ) ;
#41 = AXIS2_PLACEMENT_3D ( 'NONE', #107, #183, #153 ) ;
#42 = FACE_OUTER_BOUND ( 'NONE', #170, .T. ) ;
#43 = CC_DESIGN_APPROVAL ( #27, ( #123 ) ) ;
#44 = EDGE_LOOP ( 'NONE', ( #192, #59, #102 ) ) ;
#45 = PERSON_AND_ORGANIZATION ( #157, #160 ) ;
#46 = CC_DESIGN_PERSON_AND_ORGANIZATION_ASSIGNMENT ( #124, #185, ( #140 ) ) ;
#47 = PRODUCT_DEFINITION_SHAPE ( 'NONE', 'NONE',  #156 ) ;
#48 = DIRECTION ( 'NONE',  ( -0.000000000000000000, -0.000000000000000000, -1.000000000000000000 ) ) ;
#49 = VERTEX_POINT ( 'NONE', #90 ) ;
#50 = AXIS2_PLACEMENT_3D ( 'NONE', #134, #166, #11 ) ;
#51 = DIRECTION ( 'NONE',  ( 1.000000000000000000, 0.000000000000000000, -0.000000000000000000 ) ) ;
#52 = ORIENTED_EDGE ( 'NONE', *, *, #133, .F. ) ;
#53 = LOCAL_TIME ( 13, 17, 31.00000000000000000, #154 ) ;
#54 = PERSON_AND_ORGANIZATION_ROLE ( 'design_owner' ) ;
#55 = SPHERICAL_SURFACE ( 'NONE', #201, 700.0000000000000000 ) ;
#56 = CC_DESIGN_DATE_AND_TIME_ASSIGNMENT ( #172, #137, ( #123 ) ) ;
#57 = CARTESIAN_POINT ( 'NONE',  ( 0.000000000000000000, 0.000000000000000000, 0.000000000000000000 ) ) ;
#58 = SHAPE_DEFINITION_REPRESENTATION ( #47, #147 ) ;
#59 = ORIENTED_EDGE ( 'NONE', *, *, #96, .F. ) ;
#60 = COORDINATED_UNIVERSAL_TIME_OFFSET ( 2, 0, .AHEAD. ) ;
#61 = CC_DESIGN_PERSON_AND_ORGANIZATION_ASSIGNMENT ( #118, #100, ( #156 ) ) ;
#62 = AXIS2_PLACEMENT_3D ( 'NONE', #68, #7, #35 ) ;
#63 = ADVANCED_FACE ( 'NONE', ( #122 ), #136, .T. ) ;
#64 = APPROVAL_STATUS ( 'not_yet_approved' ) ;
#65 = DIRECTION ( 'NONE',  ( 0.000000000000000000, 0.000000000000000000, 1.000000000000000000 ) ) ;
#66 = ORIENTED_EDGE ( 'NONE', *, *, #174, .F. ) ;
#67 = APPLICATION_PROTOCOL_DEFINITION ( 'international standard', 'config_control_design', 1994, #93 ) ;
#68 = CARTESIAN_POINT ( 'NONE',  ( 8.673617379884035472E-14, 0.000000000000000000, 6.000000000000005329 ) ) ;
#69 = DIRECTION ( 'NONE',  ( 1.000000000000000000, 0.000000000000000000, 0.000000000000000000 ) ) ;
#70 = CARTESIAN_POINT ( 'NONE',  ( 8.673617379884035472E-14, 0.000000000000000000, 705.8847833750924110 ) ) ;
#71 = DATE_AND_TIME ( #121, #76 ) ;
#72 = DIRECTION ( 'NONE',  ( 1.000000000000000000, 0.000000000000000000, 0.000000000000000000 ) ) ;
#73 = PERSON_AND_ORGANIZATION_ROLE ( 'creator' ) ;
#74 = EDGE_CURVE ( 'NONE', #145, #151, #125, .T. ) ;
#75 = AXIS2_PLACEMENT_3D ( 'NONE', #178, #162, #146 ) ;
#76 = LOCAL_TIME ( 13, 17, 31.00000000000000000, #16 ) ;
#77 = APPROVAL ( #182, 'UNSPECIFIED' ) ;
#78 = PRODUCT ( '010-0214E_N-BK7_PCV_window', '010-0214E_N-BK7_PCV_window', '', ( #193 ) ) ;
#79 = PERSON_AND_ORGANIZATION ( #157, #160 ) ;
#80 = CARTESIAN_POINT ( 'NONE',  ( 12.69999999999999929, 1.555301434917138433E-15, 0.000000000000000000 ) ) ;
#81 = ORIENTED_EDGE ( 'NONE', *, *, #148, .T. ) ;
#82 = CALENDAR_DATE ( 2021, 25, 2 ) ;
#83 = CARTESIAN_POINT ( 'NONE',  ( 12.69999999999713935, 1.555301434916963305E-15, 6.000000000000005329 ) ) ;
#84 = ORIENTED_EDGE ( 'NONE', *, *, #133, .T. ) ;
#85 = CARTESIAN_POINT ( 'NONE',  ( 0.000000000000000000, 0.000000000000000000, 0.000000000000000000 ) ) ;
#86 = FACE_OUTER_BOUND ( 'NONE', #36, .T. ) ;
#87 = VECTOR ( 'NONE', #19, 1000.000000000000000 ) ;
#88 = UNCERTAINTY_MEASURE_WITH_UNIT (LENGTH_MEASURE( 1.000000000000000082E-05 ), #135, 'distance_accuracy_value', 'NONE');
#89 = ORIENTED_EDGE ( 'NONE', *, *, #141, .T. ) ;
#90 = CARTESIAN_POINT ( 'NONE',  ( -12.69999999999999929, 0.000000000000000000, 0.000000000000000000 ) ) ;
#91 = PERSON_AND_ORGANIZATION_ROLE ( 'classification_officer' ) ;
#92 = DATE_AND_TIME ( #155, #95 ) ;
#93 = APPLICATION_CONTEXT ( 'configuration controlled 3d designs of mechanical parts and assemblies' ) ;
#94 = AXIS2_PLACEMENT_3D ( 'NONE', #26, #28, #199 ) ;
#95 = LOCAL_TIME ( 13, 17, 31.00000000000000000, #60 ) ;
#96 = EDGE_CURVE ( 'NONE', #145, #163, #25, .T. ) ;
#97 = AXIS2_PLACEMENT_3D ( 'NONE', #184, #167, #13 ) ;
#98 = CARTESIAN_POINT ( 'NONE',  ( 8.673617379884035472E-14, 0.000000000000000000, 6.000000000000005329 ) ) ;
#99 = ORIENTED_EDGE ( 'NONE', *, *, #96, .T. ) ;
#100 = PERSON_AND_ORGANIZATION_ROLE ( 'creator' ) ;
#101 = LINE ( 'NONE', #187, #116 ) ;
#102 = ORIENTED_EDGE ( 'NONE', *, *, #74, .T. ) ;
#103 = DATE_AND_TIME ( #37, #8 ) ;
#104 = ADVANCED_FACE ( 'NONE', ( #132 ), #22, .F. ) ;
#105 = SPHERICAL_SURFACE ( 'NONE', #50, 700.0000000000000000 ) ;
#106 = CIRCLE ( 'NONE', #17, 12.69999999999999929 ) ;
#107 = CARTESIAN_POINT ( 'NONE',  ( 8.673617379884035472E-14, 0.000000000000000000, 705.8847833750924110 ) ) ;
#108 = LOCAL_TIME ( 13, 17, 31.00000000000000000, #4 ) ;
#109 = DIRECTION ( 'NONE',  ( 0.000000000000000000, 0.000000000000000000, 1.000000000000000000 ) ) ;
#110 = APPROVAL_DATE_TIME ( #71, #77 ) ;
#111 = AXIS2_PLACEMENT_3D ( 'NONE', #85, #189, #6 ) ;
#112 = CC_DESIGN_PERSON_AND_ORGANIZATION_ASSIGNMENT ( #45, #91, ( #123 ) ) ;
#113 = LINE ( 'NONE', #34, #87 ) ;
#114 = PRODUCT_RELATED_PRODUCT_CATEGORY ( 'detail', '', ( #78 ) ) ;
#115 = ORIENTED_EDGE ( 'NONE', *, *, #2, .T. ) ;
#116 = VECTOR ( 'NONE', #127, 1000.000000000000000 ) ;
#117 = CARTESIAN_POINT ( 'NONE',  ( -12.69999999999696527, 0.000000000000000000, 6.000000000000005329 ) ) ;
#118 = PERSON_AND_ORGANIZATION ( #157, #160 ) ;
#119 = CC_DESIGN_DATE_AND_TIME_ASSIGNMENT ( #103, #161, ( #156 ) ) ;
#120 = ORIENTED_EDGE ( 'NONE', *, *, #141, .F. ) ;
#121 = CALENDAR_DATE ( 2021, 25, 2 ) ;
#122 = FACE_OUTER_BOUND ( 'NONE', #15, .T. ) ;
#123 = SECURITY_CLASSIFICATION ( '', '', #200 ) ;
#124 = PERSON_AND_ORGANIZATION ( #157, #160 ) ;
#125 = CIRCLE ( 'NONE', #142, 699.9999999999998863 ) ;
#126 = MANIFOLD_SOLID_BREP ( 'Cut-Revolve1', #158 ) ;
#127 = DIRECTION ( 'NONE',  ( -0.000000000000000000, -0.000000000000000000, -1.000000000000000000 ) ) ;
#128 = DATE_AND_TIME ( #82, #108 ) ;
#129 = DIRECTION ( 'NONE',  ( 0.000000000000000000, 1.000000000000000000, -0.000000000000000000 ) ) ;
#130 = EDGE_LOOP ( 'NONE', ( #177, #3 ) ) ;
#131 = CIRCLE ( 'NONE', #41, 700.0000000000000000 ) ;
#132 = FACE_OUTER_BOUND ( 'NONE', #130, .T. ) ;
#133 = EDGE_CURVE ( 'NONE', #163, #145, #149, .T. ) ;
#134 = CARTESIAN_POINT ( 'NONE',  ( 8.673617379884035472E-14, 0.000000000000000000, 705.8847833750924110 ) ) ;
#135 =( LENGTH_UNIT ( ) NAMED_UNIT ( * ) SI_UNIT ( .MILLI., .METRE. ) );
#136 = CYLINDRICAL_SURFACE ( 'NONE', #97, 12.69999999999999929 ) ;
#137 = DATE_TIME_ROLE ( 'classification_date' ) ;
#138 = CYLINDRICAL_SURFACE ( 'NONE', #94, 12.69999999999999929 ) ;
#139 = APPROVAL_STATUS ( 'not_yet_approved' ) ;
#140 = PRODUCT_DEFINITION_FORMATION_WITH_SPECIFIED_SOURCE ( 'ANY', '', #78, .NOT_KNOWN. ) ;
#141 = EDGE_CURVE ( 'NONE', #163, #49, #101, .T. ) ;
#142 = AXIS2_PLACEMENT_3D ( 'NONE', #70, #129, #65 ) ;
#143 = APPLICATION_PROTOCOL_DEFINITION ( 'international standard', 'config_control_design', 1994, #1 ) ;
#144 = FACE_OUTER_BOUND ( 'NONE', #44, .T. ) ;
#145 = VERTEX_POINT ( 'NONE', #83 ) ;
#146 = DIRECTION ( 'NONE',  ( 1.000000000000000000, 0.000000000000000000, 0.000000000000000000 ) ) ;
#147 = ADVANCED_BREP_SHAPE_REPRESENTATION ( '010-0214E_N-BK7_PCV_window', ( #126, #111 ), #197 ) ;
#148 = EDGE_CURVE ( 'NONE', #49, #179, #176, .T. ) ;
#149 = CIRCLE ( 'NONE', #62, 12.69999999999705231 ) ;
#150 =( NAMED_UNIT ( * ) PLANE_ANGLE_UNIT ( ) SI_UNIT ( $, .RADIAN. ) );
#151 = VERTEX_POINT ( 'NONE', #159 ) ;
#152 = CALENDAR_DATE ( 2021, 25, 2 ) ;
#153 = DIRECTION ( 'NONE',  ( 1.000000000000000000, 1.224646799147353207E-16, 0.000000000000000000 ) ) ;
#154 = COORDINATED_UNIVERSAL_TIME_OFFSET ( 2, 0, .AHEAD. ) ;
#155 = CALENDAR_DATE ( 2021, 25, 2 ) ;
#156 = PRODUCT_DEFINITION ( 'UNKNOWN', '', #140, #12 ) ;
#157 = PERSON ( 'UNSPECIFIED', 'UNSPECIFIED', 'UNSPECIFIED', ('UNSPECIFIED'), ('UNSPECIFIED'), ('UNSPECIFIED') ) ;
#158 = CLOSED_SHELL ( 'NONE', ( #196, #63, #24, #104, #186 ) ) ;
#159 = CARTESIAN_POINT ( 'NONE',  ( 1.295988117689977323E-13, 0.000000000000000000, 5.884783375092461633 ) ) ;
#160 = ORGANIZATION ( 'UNSPECIFIED', 'UNSPECIFIED', '' ) ;
#161 = DATE_TIME_ROLE ( 'creation_date' ) ;
#162 = DIRECTION ( 'NONE',  ( 0.000000000000000000, 0.000000000000000000, 1.000000000000000000 ) ) ;
#163 = VERTEX_POINT ( 'NONE', #117 ) ;
#164 = APPROVAL_ROLE ( '' ) ;
#165 = CC_DESIGN_APPROVAL ( #77, ( #140 ) ) ;
#166 = DIRECTION ( 'NONE',  ( 0.000000000000000000, -1.000000000000000000, -0.000000000000000000 ) ) ;
#167 = DIRECTION ( 'NONE',  ( -0.000000000000000000, -0.000000000000000000, -1.000000000000000000 ) ) ;
#168 = ORIENTED_EDGE ( 'NONE', *, *, #174, .T. ) ;
#169 = CC_DESIGN_APPROVAL ( #31, ( #156 ) ) ;
#170 = EDGE_LOOP ( 'NONE', ( #66, #99, #89, #81 ) ) ;
#171 = CC_DESIGN_PERSON_AND_ORGANIZATION_ASSIGNMENT ( #29, #73, ( #140 ) ) ;
#172 = DATE_AND_TIME ( #152, #53 ) ;
#173 = APPROVAL_PERSON_ORGANIZATION ( #198, #27, #30 ) ;
#174 = EDGE_CURVE ( 'NONE', #145, #179, #113, .T. ) ;
#175 = CARTESIAN_POINT ( 'NONE',  ( 0.000000000000000000, 0.000000000000000000, 0.000000000000000000 ) ) ;
#176 = CIRCLE ( 'NONE', #75, 12.69999999999999929 ) ;
#177 = ORIENTED_EDGE ( 'NONE', *, *, #148, .F. ) ;
#178 = CARTESIAN_POINT ( 'NONE',  ( 0.000000000000000000, 0.000000000000000000, 0.000000000000000000 ) ) ;
#179 = VERTEX_POINT ( 'NONE', #80 ) ;
#180 = COORDINATED_UNIVERSAL_TIME_OFFSET ( 2, 0, .AHEAD. ) ;
#181 = PERSON_AND_ORGANIZATION ( #157, #160 ) ;
#182 = APPROVAL_STATUS ( 'not_yet_approved' ) ;
#183 = DIRECTION ( 'NONE',  ( 1.224646799147353207E-16, -1.000000000000000000, 0.000000000000000000 ) ) ;
#184 = CARTESIAN_POINT ( 'NONE',  ( 0.000000000000000000, 0.000000000000000000, 6.000000000000000000 ) ) ;
#185 = PERSON_AND_ORGANIZATION_ROLE ( 'design_supplier' ) ;
#186 = ADVANCED_FACE ( 'NONE', ( #144 ), #55, .F. ) ;
#187 = CARTESIAN_POINT ( 'NONE',  ( -12.69999999999999929, 0.000000000000000000, 6.000000000000000000 ) ) ;
#188 = ORIENTED_EDGE ( 'NONE', *, *, #74, .F. ) ;
#189 = DIRECTION ( 'NONE',  ( 0.000000000000000000, 0.000000000000000000, 1.000000000000000000 ) ) ;
#190 = DIRECTION ( 'NONE',  ( 0.000000000000000000, 0.000000000000000000, 1.000000000000000000 ) ) ;
#191 = AXIS2_PLACEMENT_3D ( 'NONE', #175, #190, #51 ) ;
#192 = ORIENTED_EDGE ( 'NONE', *, *, #10, .F. ) ;
#193 = MECHANICAL_CONTEXT ( 'NONE', #93, 'mechanical' ) ;
#194 = CC_DESIGN_SECURITY_CLASSIFICATION ( #123, ( #140 ) ) ;
#195 =( NAMED_UNIT ( * ) SI_UNIT ( $, .STERADIAN. ) SOLID_ANGLE_UNIT ( ) );
#196 = ADVANCED_FACE ( 'NONE', ( #86 ), #105, .F. ) ;
#197 =( GEOMETRIC_REPRESENTATION_CONTEXT ( 3 ) GLOBAL_UNCERTAINTY_ASSIGNED_CONTEXT ( ( #88 ) ) GLOBAL_UNIT_ASSIGNED_CONTEXT ( ( #135, #150, #195 ) ) REPRESENTATION_CONTEXT ( 'NONE', 'WORKASPACE' ) );
#198 = PERSON_AND_ORGANIZATION ( #157, #160 ) ;
#199 = DIRECTION ( 'NONE',  ( -1.000000000000000000, 0.000000000000000000, 0.000000000000000000 ) ) ;
#200 = SECURITY_CLASSIFICATION_LEVEL ( 'unclassified' ) ;
#201 = AXIS2_PLACEMENT_3D ( 'NONE', #9, #39, #69 ) ;
ENDSEC;
END-ISO-10303-21;
