ISO-10303-21;
HEADER;
FILE_DESCRIPTION (( 'STEP AP203' ),
    '1' );
FILE_NAME ('010-0212E_N-BK7_PCV_window.STEP',
    '2021-02-25T11:16:40',
    ( '' ),
    ( '' ),
    'SwSTEP 2.0',
    'SolidWorks 2019',
    '' );
FILE_SCHEMA (( 'CONFIG_CONTROL_DESIGN' ));
ENDSEC;

DATA;
#1 = PRODUCT_DEFINITION_FORMATION_WITH_SPECIFIED_SOURCE ( 'ANY', '', #9, .NOT_KNOWN. ) ;
#2 = PRODUCT_RELATED_PRODUCT_CATEGORY ( 'detail', '', ( #9 ) ) ;
#3 = LOCAL_TIME ( 13, 16, 40.00000000000000000, #99 ) ;
#4 = CARTESIAN_POINT ( 'NONE',  ( 12.69999999999999929, 1.555301434917138433E-15, 6.000000000000000000 ) ) ;
#5 = CIRCLE ( 'NONE', #91, 12.69999999999999929 ) ;
#6 = EDGE_LOOP ( 'NONE', ( #45, #189 ) ) ;
#7 = VERTEX_POINT ( 'NONE', #133 ) ;
#8 = APPROVAL_DATE_TIME ( #143, #104 ) ;
#9 = PRODUCT ( '010-0212E_N-BK7_PCV_window', '010-0212E_N-BK7_PCV_window', '', ( #114 ) ) ;
#10 = DIRECTION ( 'NONE',  ( -0.000000000000000000, -0.000000000000000000, -1.000000000000000000 ) ) ;
#11 = DATE_TIME_ROLE ( 'creation_date' ) ;
#12 = AXIS2_PLACEMENT_3D ( 'NONE', #103, #16, #153 ) ;
#13 = DIRECTION ( 'NONE',  ( 0.000000000000000000, 1.000000000000000000, -0.000000000000000000 ) ) ;
#14 = CYLINDRICAL_SURFACE ( 'NONE', #53, 12.69999999999999929 ) ;
#15 = DIRECTION ( 'NONE',  ( 0.000000000000000000, 0.000000000000000000, 1.000000000000000000 ) ) ;
#16 = DIRECTION ( 'NONE',  ( 1.224646799147353207E-16, -1.000000000000000000, 0.000000000000000000 ) ) ;
#17 = ORIENTED_EDGE ( 'NONE', *, *, #157, .T. ) ;
#18 = DIRECTION ( 'NONE',  ( 0.000000000000000000, -1.000000000000000000, -0.000000000000000000 ) ) ;
#19 = CC_DESIGN_APPROVAL ( #132, ( #144 ) ) ;
#20 = DATE_AND_TIME ( #174, #108 ) ;
#21 = DESIGN_CONTEXT ( 'detailed design', #39, 'design' ) ;
#22 = ORIENTED_EDGE ( 'NONE', *, *, #60, .T. ) ;
#23 = ADVANCED_FACE ( 'NONE', ( #58 ), #100, .T. ) ;
#24 = EDGE_LOOP ( 'NONE', ( #125, #43, #169, #158 ) ) ;
#25 = FACE_OUTER_BOUND ( 'NONE', #176, .T. ) ;
#26 = AXIS2_PLACEMENT_3D ( 'NONE', #97, #33, #54 ) ;
#27 = VERTEX_POINT ( 'NONE', #98 ) ;
#28 = PERSON_AND_ORGANIZATION ( #78, #177 ) ;
#29 = COORDINATED_UNIVERSAL_TIME_OFFSET ( 2, 0, .AHEAD. ) ;
#30 = PERSON_AND_ORGANIZATION ( #78, #177 ) ;
#31 = CLOSED_SHELL ( 'NONE', ( #112, #178, #23, #32, #186 ) ) ;
#32 = ADVANCED_FACE ( 'NONE', ( #165 ), #154, .F. ) ;
#33 = DIRECTION ( 'NONE',  ( 0.000000000000000000, 0.000000000000000000, 1.000000000000000000 ) ) ;
#34 = ORIENTED_EDGE ( 'NONE', *, *, #162, .F. ) ;
#35 = COORDINATED_UNIVERSAL_TIME_OFFSET ( 2, 0, .AHEAD. ) ;
#36 = AXIS2_PLACEMENT_3D ( 'NONE', #117, #184, #87 ) ;
#37 = CC_DESIGN_PERSON_AND_ORGANIZATION_ASSIGNMENT ( #44, #136, ( #1 ) ) ;
#38 = DIRECTION ( 'NONE',  ( 1.000000000000000000, 0.000000000000000000, 0.000000000000000000 ) ) ;
#39 = APPLICATION_CONTEXT ( 'configuration controlled 3d designs of mechanical parts and assemblies' ) ;
#40 = EDGE_CURVE ( 'NONE', #7, #47, #128, .T. ) ;
#41 = EDGE_CURVE ( 'NONE', #47, #70, #185, .T. ) ;
#42 = PERSON_AND_ORGANIZATION_ROLE ( 'classification_officer' ) ;
#43 = ORIENTED_EDGE ( 'NONE', *, *, #162, .T. ) ;
#44 = PERSON_AND_ORGANIZATION ( #78, #177 ) ;
#45 = ORIENTED_EDGE ( 'NONE', *, *, #129, .F. ) ;
#46 = DATE_AND_TIME ( #92, #134 ) ;
#47 = VERTEX_POINT ( 'NONE', #83 ) ;
#48 = CALENDAR_DATE ( 2021, 25, 2 ) ;
#49 =( NAMED_UNIT ( * ) PLANE_ANGLE_UNIT ( ) SI_UNIT ( $, .RADIAN. ) );
#50 = CC_DESIGN_DATE_AND_TIME_ASSIGNMENT ( #146, #11, ( #144 ) ) ;
#51 = APPLICATION_PROTOCOL_DEFINITION ( 'international standard', 'config_control_design', 1994, #121 ) ;
#52 = DIRECTION ( 'NONE',  ( 0.000000000000000000, 0.000000000000000000, 1.000000000000000000 ) ) ;
#53 = AXIS2_PLACEMENT_3D ( 'NONE', #171, #201, #111 ) ;
#54 = DIRECTION ( 'NONE',  ( 1.000000000000000000, 0.000000000000000000, 0.000000000000000000 ) ) ;
#55 = CARTESIAN_POINT ( 'NONE',  ( 7.459310946700270506E-14, 0.000000000000000000, 605.8655766086264975 ) ) ;
#56 = CARTESIAN_POINT ( 'NONE',  ( 0.000000000000000000, 0.000000000000000000, 6.000000000000000000 ) ) ;
#57 = APPROVAL_PERSON_ORGANIZATION ( #66, #104, #67 ) ;
#58 = FACE_OUTER_BOUND ( 'NONE', #160, .T. ) ;
#59 = CARTESIAN_POINT ( 'NONE',  ( -12.69999999999999929, 0.000000000000000000, 0.000000000000000000 ) ) ;
#60 = EDGE_CURVE ( 'NONE', #47, #7, #115, .T. ) ;
#61 = APPROVAL_ROLE ( '' ) ;
#62 = AXIS2_PLACEMENT_3D ( 'NONE', #151, #13, #52 ) ;
#63 = ORIENTED_EDGE ( 'NONE', *, *, #40, .F. ) ;
#64 = APPROVAL ( #156, 'UNSPECIFIED' ) ;
#65 = COORDINATED_UNIVERSAL_TIME_OFFSET ( 2, 0, .AHEAD. ) ;
#66 = PERSON_AND_ORGANIZATION ( #78, #177 ) ;
#67 = APPROVAL_ROLE ( '' ) ;
#68 = CARTESIAN_POINT ( 'NONE',  ( 0.000000000000000000, 0.000000000000000000, 0.000000000000000000 ) ) ;
#69 = APPROVAL_ROLE ( '' ) ;
#70 = VERTEX_POINT ( 'NONE', #145 ) ;
#71 = ORIENTED_EDGE ( 'NONE', *, *, #41, .F. ) ;
#72 = EDGE_CURVE ( 'NONE', #27, #122, #159, .T. ) ;
#73 = EDGE_CURVE ( 'NONE', #7, #122, #166, .T. ) ;
#74 = UNCERTAINTY_MEASURE_WITH_UNIT (LENGTH_MEASURE( 1.000000000000000082E-05 ), #161, 'distance_accuracy_value', 'NONE');
#75 = PERSON_AND_ORGANIZATION ( #78, #177 ) ;
#76 = AXIS2_PLACEMENT_3D ( 'NONE', #55, #18, #38 ) ;
#77 = ORIENTED_EDGE ( 'NONE', *, *, #129, .T. ) ;
#78 = PERSON ( 'UNSPECIFIED', 'UNSPECIFIED', 'UNSPECIFIED', ('UNSPECIFIED'), ('UNSPECIFIED'), ('UNSPECIFIED') ) ;
#79 = ORIENTED_EDGE ( 'NONE', *, *, #60, .F. ) ;
#80 = PERSON_AND_ORGANIZATION ( #78, #177 ) ;
#81 = CALENDAR_DATE ( 2021, 25, 2 ) ;
#82 =( NAMED_UNIT ( * ) SI_UNIT ( $, .STERADIAN. ) SOLID_ANGLE_UNIT ( ) );
#83 = CARTESIAN_POINT ( 'NONE',  ( 12.69999999999494023, 1.555301434916828805E-15, 6.000000000000005329 ) ) ;
#84 = CARTESIAN_POINT ( 'NONE',  ( 0.000000000000000000, 0.000000000000000000, 0.000000000000000000 ) ) ;
#85 = APPLICATION_PROTOCOL_DEFINITION ( 'international standard', 'config_control_design', 1994, #39 ) ;
#86 = ORIENTED_EDGE ( 'NONE', *, *, #73, .T. ) ;
#87 = DIRECTION ( 'NONE',  ( 1.000000000000000000, 0.000000000000000000, 0.000000000000000000 ) ) ;
#88 = CC_DESIGN_APPROVAL ( #104, ( #1 ) ) ;
#89 = DIRECTION ( 'NONE',  ( 1.000000000000000000, 0.000000000000000000, 0.000000000000000000 ) ) ;
#90 = DIRECTION ( 'NONE',  ( 0.000000000000000000, 0.000000000000000000, 1.000000000000000000 ) ) ;
#91 = AXIS2_PLACEMENT_3D ( 'NONE', #101, #90, #89 ) ;
#92 = CALENDAR_DATE ( 2021, 25, 2 ) ;
#93 = SHAPE_DEFINITION_REPRESENTATION ( #195, #102 ) ;
#94 = AXIS2_PLACEMENT_3D ( 'NONE', #150, #10, #127 ) ;
#95 = PERSON_AND_ORGANIZATION_ROLE ( 'design_owner' ) ;
#96 = CC_DESIGN_PERSON_AND_ORGANIZATION_ASSIGNMENT ( #75, #42, ( #175 ) ) ;
#97 = CARTESIAN_POINT ( 'NONE',  ( 0.000000000000000000, 0.000000000000000000, 0.000000000000000000 ) ) ;
#98 = CARTESIAN_POINT ( 'NONE',  ( 12.69999999999999929, 1.555301434917138433E-15, 0.000000000000000000 ) ) ;
#99 = COORDINATED_UNIVERSAL_TIME_OFFSET ( 2, 0, .AHEAD. ) ;
#100 = CYLINDRICAL_SURFACE ( 'NONE', #149, 12.69999999999999929 ) ;
#101 = CARTESIAN_POINT ( 'NONE',  ( 0.000000000000000000, 0.000000000000000000, 0.000000000000000000 ) ) ;
#102 = ADVANCED_BREP_SHAPE_REPRESENTATION ( '010-0212E_N-BK7_PCV_window', ( #107, #26 ), #109 ) ;
#103 = CARTESIAN_POINT ( 'NONE',  ( 7.459310946700270506E-14, 0.000000000000000000, 605.8655766086264975 ) ) ;
#104 = APPROVAL ( #110, 'UNSPECIFIED' ) ;
#105 = DIRECTION ( 'NONE',  ( -0.000000000000000000, -0.000000000000000000, -1.000000000000000000 ) ) ;
#106 = PERSON_AND_ORGANIZATION_ROLE ( 'creator' ) ;
#107 = MANIFOLD_SOLID_BREP ( 'Cut-Revolve1', #31 ) ;
#108 = LOCAL_TIME ( 13, 16, 40.00000000000000000, #29 ) ;
#109 =( GEOMETRIC_REPRESENTATION_CONTEXT ( 3 ) GLOBAL_UNCERTAINTY_ASSIGNED_CONTEXT ( ( #74 ) ) GLOBAL_UNIT_ASSIGNED_CONTEXT ( ( #161, #49, #82 ) ) REPRESENTATION_CONTEXT ( 'NONE', 'WORKASPACE' ) );
#110 = APPROVAL_STATUS ( 'not_yet_approved' ) ;
#111 = DIRECTION ( 'NONE',  ( -1.000000000000000000, 0.000000000000000000, 0.000000000000000000 ) ) ;
#112 = ADVANCED_FACE ( 'NONE', ( #147 ), #130, .F. ) ;
#113 = DIRECTION ( 'NONE',  ( 1.000000000000000000, 0.000000000000000000, 0.000000000000000000 ) ) ;
#114 = MECHANICAL_CONTEXT ( 'NONE', #121, 'mechanical' ) ;
#115 = CIRCLE ( 'NONE', #94, 12.69999999999486562 ) ;
#116 = CARTESIAN_POINT ( 'NONE',  ( -12.69999999999999929, 0.000000000000000000, 6.000000000000000000 ) ) ;
#117 = CARTESIAN_POINT ( 'NONE',  ( 7.459310946700270506E-14, 0.000000000000000000, 6.000000000000005329 ) ) ;
#118 = AXIS2_PLACEMENT_3D ( 'NONE', #68, #199, #196 ) ;
#119 = CC_DESIGN_DATE_AND_TIME_ASSIGNMENT ( #20, #188, ( #175 ) ) ;
#120 = APPROVAL_DATE_TIME ( #183, #132 ) ;
#121 = APPLICATION_CONTEXT ( 'configuration controlled 3d designs of mechanical parts and assemblies' ) ;
#122 = VERTEX_POINT ( 'NONE', #59 ) ;
#123 = APPROVAL_PERSON_ORGANIZATION ( #142, #132, #69 ) ;
#124 = COORDINATED_UNIVERSAL_TIME_OFFSET ( 2, 0, .AHEAD. ) ;
#125 = ORIENTED_EDGE ( 'NONE', *, *, #40, .T. ) ;
#126 = CC_DESIGN_PERSON_AND_ORGANIZATION_ASSIGNMENT ( #30, #106, ( #1 ) ) ;
#127 = DIRECTION ( 'NONE',  ( 1.000000000000000000, 0.000000000000000000, 0.000000000000000000 ) ) ;
#128 = CIRCLE ( 'NONE', #36, 12.69999999999486562 ) ;
#129 = EDGE_CURVE ( 'NONE', #122, #27, #5, .T. ) ;
#130 = SPHERICAL_SURFACE ( 'NONE', #76, 599.9999999999998863 ) ;
#131 = DIRECTION ( 'NONE',  ( -1.000000000000000000, 0.000000000000000000, 0.000000000000000000 ) ) ;
#132 = APPROVAL ( #197, 'UNSPECIFIED' ) ;
#133 = CARTESIAN_POINT ( 'NONE',  ( -12.69999999999479101, 0.000000000000000000, 6.000000000000005329 ) ) ;
#134 = LOCAL_TIME ( 13, 16, 40.00000000000000000, #65 ) ;
#135 = LOCAL_TIME ( 13, 16, 40.00000000000000000, #35 ) ;
#136 = PERSON_AND_ORGANIZATION_ROLE ( 'design_supplier' ) ;
#137 = FACE_OUTER_BOUND ( 'NONE', #24, .T. ) ;
#138 = AXIS2_PLACEMENT_3D ( 'NONE', #168, #194, #113 ) ;
#139 = APPROVAL_DATE_TIME ( #46, #64 ) ;
#140 = EDGE_LOOP ( 'NONE', ( #63, #17, #71 ) ) ;
#141 = ORIENTED_EDGE ( 'NONE', *, *, #157, .F. ) ;
#142 = PERSON_AND_ORGANIZATION ( #78, #177 ) ;
#143 = DATE_AND_TIME ( #163, #135 ) ;
#144 = PRODUCT_DEFINITION ( 'UNKNOWN', '', #1, #21 ) ;
#145 = CARTESIAN_POINT ( 'NONE',  ( 1.113325134414233000E-13, 0.000000000000000000, 5.865576608626632549 ) ) ;
#146 = DATE_AND_TIME ( #48, #192 ) ;
#147 = FACE_OUTER_BOUND ( 'NONE', #140, .T. ) ;
#148 = DIRECTION ( 'NONE',  ( 1.000000000000000000, 0.000000000000000000, -0.000000000000000000 ) ) ;
#149 = AXIS2_PLACEMENT_3D ( 'NONE', #56, #182, #131 ) ;
#150 = CARTESIAN_POINT ( 'NONE',  ( 7.459310946700270506E-14, 0.000000000000000000, 6.000000000000005329 ) ) ;
#151 = CARTESIAN_POINT ( 'NONE',  ( 7.459310946700270506E-14, 0.000000000000000000, 605.8655766086264975 ) ) ;
#152 = CC_DESIGN_APPROVAL ( #64, ( #175 ) ) ;
#153 = DIRECTION ( 'NONE',  ( 1.000000000000000000, 1.224646799147353207E-16, 0.000000000000000000 ) ) ;
#154 = PLANE ( 'NONE',  #155 ) ;
#155 = AXIS2_PLACEMENT_3D ( 'NONE', #84, #15, #148 ) ;
#156 = APPROVAL_STATUS ( 'not_yet_approved' ) ;
#157 = EDGE_CURVE ( 'NONE', #7, #70, #198, .T. ) ;
#158 = ORIENTED_EDGE ( 'NONE', *, *, #73, .F. ) ;
#159 = CIRCLE ( 'NONE', #118, 12.69999999999999929 ) ;
#160 = EDGE_LOOP ( 'NONE', ( #34, #22, #86, #77 ) ) ;
#161 =( LENGTH_UNIT ( ) NAMED_UNIT ( * ) SI_UNIT ( .MILLI., .METRE. ) );
#162 = EDGE_CURVE ( 'NONE', #47, #27, #191, .T. ) ;
#163 = CALENDAR_DATE ( 2021, 25, 2 ) ;
#164 = CC_DESIGN_SECURITY_CLASSIFICATION ( #175, ( #1 ) ) ;
#165 = FACE_OUTER_BOUND ( 'NONE', #6, .T. ) ;
#166 = LINE ( 'NONE', #116, #170 ) ;
#167 = CC_DESIGN_PERSON_AND_ORGANIZATION_ASSIGNMENT ( #179, #190, ( #144 ) ) ;
#168 = CARTESIAN_POINT ( 'NONE',  ( 7.459310946700270506E-14, 0.000000000000000000, 605.8655766086264975 ) ) ;
#169 = ORIENTED_EDGE ( 'NONE', *, *, #72, .T. ) ;
#170 = VECTOR ( 'NONE', #181, 1000.000000000000000 ) ;
#171 = CARTESIAN_POINT ( 'NONE',  ( 0.000000000000000000, 0.000000000000000000, 6.000000000000000000 ) ) ;
#172 = SPHERICAL_SURFACE ( 'NONE', #138, 599.9999999999998863 ) ;
#173 = SECURITY_CLASSIFICATION_LEVEL ( 'unclassified' ) ;
#174 = CALENDAR_DATE ( 2021, 25, 2 ) ;
#175 = SECURITY_CLASSIFICATION ( '', '', #173 ) ;
#176 = EDGE_LOOP ( 'NONE', ( #141, #79, #193 ) ) ;
#177 = ORGANIZATION ( 'UNSPECIFIED', 'UNSPECIFIED', '' ) ;
#178 = ADVANCED_FACE ( 'NONE', ( #137 ), #14, .T. ) ;
#179 = PERSON_AND_ORGANIZATION ( #78, #177 ) ;
#180 = VECTOR ( 'NONE', #105, 1000.000000000000000 ) ;
#181 = DIRECTION ( 'NONE',  ( -0.000000000000000000, -0.000000000000000000, -1.000000000000000000 ) ) ;
#182 = DIRECTION ( 'NONE',  ( -0.000000000000000000, -0.000000000000000000, -1.000000000000000000 ) ) ;
#183 = DATE_AND_TIME ( #81, #3 ) ;
#184 = DIRECTION ( 'NONE',  ( -0.000000000000000000, -0.000000000000000000, -1.000000000000000000 ) ) ;
#185 = CIRCLE ( 'NONE', #62, 599.9999999999998863 ) ;
#186 = ADVANCED_FACE ( 'NONE', ( #25 ), #172, .F. ) ;
#187 = APPROVAL_PERSON_ORGANIZATION ( #28, #64, #61 ) ;
#188 = DATE_TIME_ROLE ( 'classification_date' ) ;
#189 = ORIENTED_EDGE ( 'NONE', *, *, #72, .F. ) ;
#190 = PERSON_AND_ORGANIZATION_ROLE ( 'creator' ) ;
#191 = LINE ( 'NONE', #4, #180 ) ;
#192 = LOCAL_TIME ( 13, 16, 40.00000000000000000, #124 ) ;
#193 = ORIENTED_EDGE ( 'NONE', *, *, #41, .T. ) ;
#194 = DIRECTION ( 'NONE',  ( 0.000000000000000000, -1.000000000000000000, -0.000000000000000000 ) ) ;
#195 = PRODUCT_DEFINITION_SHAPE ( 'NONE', 'NONE',  #144 ) ;
#196 = DIRECTION ( 'NONE',  ( 1.000000000000000000, 0.000000000000000000, 0.000000000000000000 ) ) ;
#197 = APPROVAL_STATUS ( 'not_yet_approved' ) ;
#198 = CIRCLE ( 'NONE', #12, 599.9999999999998863 ) ;
#199 = DIRECTION ( 'NONE',  ( 0.000000000000000000, 0.000000000000000000, 1.000000000000000000 ) ) ;
#200 = CC_DESIGN_PERSON_AND_ORGANIZATION_ASSIGNMENT ( #80, #95, ( #9 ) ) ;
#201 = DIRECTION ( 'NONE',  ( -0.000000000000000000, -0.000000000000000000, -1.000000000000000000 ) ) ;
ENDSEC;
END-ISO-10303-21;
