ISO-10303-21;
HEADER;
FILE_DESCRIPTION (( 'STEP AP203' ),
    '1' );
FILE_NAME ('010-0210E_N-BK7_PCV_window.STEP',
    '2021-02-25T11:15:32',
    ( '' ),
    ( '' ),
    'SwSTEP 2.0',
    'SolidWorks 2019',
    '' );
FILE_SCHEMA (( 'CONFIG_CONTROL_DESIGN' ));
ENDSEC;

DATA;
#1 = ADVANCED_FACE ( 'NONE', ( #91 ), #61, .F. ) ;
#2 = COORDINATED_UNIVERSAL_TIME_OFFSET ( 2, 0, .AHEAD. ) ;
#3 = PERSON_AND_ORGANIZATION_ROLE ( 'design_supplier' ) ;
#4 = ORIENTED_EDGE ( 'NONE', *, *, #17, .F. ) ;
#5 = EDGE_CURVE ( 'NONE', #128, #130, #98, .T. ) ;
#6 = VERTEX_POINT ( 'NONE', #135 ) ;
#7 = CALENDAR_DATE ( 2021, 25, 2 ) ;
#8 = APPROVAL_STATUS ( 'not_yet_approved' ) ;
#9 = ORIENTED_EDGE ( 'NONE', *, *, #5, .F. ) ;
#10 = SECURITY_CLASSIFICATION ( '', '', #143 ) ;
#11 = ORIENTED_EDGE ( 'NONE', *, *, #180, .T. ) ;
#12 = CARTESIAN_POINT ( 'NONE',  ( 12.69999999999999929, 1.555301434917138433E-15, 6.000000000000000000 ) ) ;
#13 = SPHERICAL_SURFACE ( 'NONE', #173, 500.0000000000000000 ) ;
#14 = DIRECTION ( 'NONE',  ( 1.000000000000000000, 0.000000000000000000, -0.000000000000000000 ) ) ;
#15 = DIRECTION ( 'NONE',  ( 1.000000000000000000, 0.000000000000000000, 0.000000000000000000 ) ) ;
#16 = VECTOR ( 'NONE', #60, 1000.000000000000000 ) ;
#17 = EDGE_CURVE ( 'NONE', #6, #193, #95, .T. ) ;
#18 = AXIS2_PLACEMENT_3D ( 'NONE', #42, #115, #175 ) ;
#19 = DIRECTION ( 'NONE',  ( 0.000000000000000000, 0.000000000000000000, 1.000000000000000000 ) ) ;
#20 = PERSON_AND_ORGANIZATION ( #76, #49 ) ;
#21 = ORIENTED_EDGE ( 'NONE', *, *, #119, .T. ) ;
#22 = APPROVAL_ROLE ( '' ) ;
#23 = DIRECTION ( 'NONE',  ( 0.000000000000000000, 0.000000000000000000, 1.000000000000000000 ) ) ;
#24 = CC_DESIGN_APPROVAL ( #107, ( #10 ) ) ;
#25 = PERSON_AND_ORGANIZATION_ROLE ( 'creator' ) ;
#26 = ORIENTED_EDGE ( 'NONE', *, *, #17, .T. ) ;
#27 = AXIS2_PLACEMENT_3D ( 'NONE', #105, #181, #47 ) ;
#28 = ORIENTED_EDGE ( 'NONE', *, *, #119, .F. ) ;
#29 = CARTESIAN_POINT ( 'NONE',  ( 0.000000000000000000, 0.000000000000000000, 6.000000000000000000 ) ) ;
#30 = FACE_OUTER_BOUND ( 'NONE', #161, .T. ) ;
#31 = CARTESIAN_POINT ( 'NONE',  ( -12.69999999999999929, 0.000000000000000000, 6.000000000000000000 ) ) ;
#32 = EDGE_CURVE ( 'NONE', #6, #125, #64, .T. ) ;
#33 = APPROVAL_DATE_TIME ( #114, #112 ) ;
#34 = AXIS2_PLACEMENT_3D ( 'NONE', #160, #23, #116 ) ;
#35 = PRODUCT_RELATED_PRODUCT_CATEGORY ( 'detail', '', ( #185 ) ) ;
#36 = APPLICATION_PROTOCOL_DEFINITION ( 'international standard', 'config_control_design', 1994, #97 ) ;
#37 = EDGE_CURVE ( 'NONE', #130, #128, #52, .T. ) ;
#38 = APPROVAL_PERSON_ORGANIZATION ( #87, #171, #127 ) ;
#39 = EDGE_LOOP ( 'NONE', ( #82, #9 ) ) ;
#40 = APPROVAL_DATE_TIME ( #179, #171 ) ;
#41 = CYLINDRICAL_SURFACE ( 'NONE', #192, 12.69999999999999929 ) ;
#42 = CARTESIAN_POINT ( 'NONE',  ( 6.245004513516505540E-14, 0.000000000000000000, 6.000000000000005329 ) ) ;
#43 = LOCAL_TIME ( 13, 15, 32.00000000000000000, #81 ) ;
#44 = CARTESIAN_POINT ( 'NONE',  ( 0.000000000000000000, 0.000000000000000000, 0.000000000000000000 ) ) ;
#45 = ADVANCED_FACE ( 'NONE', ( #132 ), #73, .T. ) ;
#46 = EDGE_LOOP ( 'NONE', ( #113, #26, #21, #89 ) ) ;
#47 = DIRECTION ( 'NONE',  ( 1.000000000000000000, 1.224646799147353207E-16, 0.000000000000000000 ) ) ;
#48 = ADVANCED_FACE ( 'NONE', ( #30 ), #13, .F. ) ;
#49 = ORGANIZATION ( 'UNSPECIFIED', 'UNSPECIFIED', '' ) ;
#50 = APPROVAL_STATUS ( 'not_yet_approved' ) ;
#51 = EDGE_CURVE ( 'NONE', #193, #125, #178, .T. ) ;
#52 = CIRCLE ( 'NONE', #148, 12.69999999999999929 ) ;
#53 = ORIENTED_EDGE ( 'NONE', *, *, #5, .T. ) ;
#54 = LINE ( 'NONE', #12, #63 ) ;
#55 = DESIGN_CONTEXT ( 'detailed design', #97, 'design' ) ;
#56 = CALENDAR_DATE ( 2021, 25, 2 ) ;
#57 = PERSON_AND_ORGANIZATION ( #76, #49 ) ;
#58 = DIRECTION ( 'NONE',  ( 1.000000000000000000, 0.000000000000000000, 0.000000000000000000 ) ) ;
#59 = DIRECTION ( 'NONE',  ( 1.000000000000000000, 0.000000000000000000, 0.000000000000000000 ) ) ;
#60 = DIRECTION ( 'NONE',  ( -0.000000000000000000, -0.000000000000000000, -1.000000000000000000 ) ) ;
#61 = PLANE ( 'NONE',  #138 ) ;
#62 = CC_DESIGN_PERSON_AND_ORGANIZATION_ASSIGNMENT ( #20, #3, ( #158 ) ) ;
#63 = VECTOR ( 'NONE', #162, 1000.000000000000000 ) ;
#64 = CIRCLE ( 'NONE', #137, 500.0000000000000000 ) ;
#65 = DATE_TIME_ROLE ( 'creation_date' ) ;
#66 = CALENDAR_DATE ( 2021, 25, 2 ) ;
#67 = DATE_AND_TIME ( #7, #201 ) ;
#68 = MECHANICAL_CONTEXT ( 'NONE', #108, 'mechanical' ) ;
#69 = COORDINATED_UNIVERSAL_TIME_OFFSET ( 2, 0, .AHEAD. ) ;
#70 = LOCAL_TIME ( 13, 15, 32.00000000000000000, #174 ) ;
#71 = CARTESIAN_POINT ( 'NONE',  ( 0.000000000000000000, 0.000000000000000000, 6.000000000000000000 ) ) ;
#72 = CARTESIAN_POINT ( 'NONE',  ( -12.69999999999999929, 0.000000000000000000, 0.000000000000000000 ) ) ;
#73 = CYLINDRICAL_SURFACE ( 'NONE', #102, 12.69999999999999929 ) ;
#74 = CC_DESIGN_PERSON_AND_ORGANIZATION_ASSIGNMENT ( #57, #25, ( #150 ) ) ;
#75 = CARTESIAN_POINT ( 'NONE',  ( 9.306621511384889292E-14, 0.000000000000000000, 5.838683977140712855 ) ) ;
#76 = PERSON ( 'UNSPECIFIED', 'UNSPECIFIED', 'UNSPECIFIED', ('UNSPECIFIED'), ('UNSPECIFIED'), ('UNSPECIFIED') ) ;
#77 = CLOSED_SHELL ( 'NONE', ( #139, #45, #187, #1, #48 ) ) ;
#78 = ADVANCED_BREP_SHAPE_REPRESENTATION ( '010-0210E_N-BK7_PCV_window', ( #123, #34 ), #156 ) ;
#79 = CC_DESIGN_DATE_AND_TIME_ASSIGNMENT ( #67, #172, ( #10 ) ) ;
#80 = LOCAL_TIME ( 13, 15, 32.00000000000000000, #88 ) ;
#81 = COORDINATED_UNIVERSAL_TIME_OFFSET ( 2, 0, .AHEAD. ) ;
#82 = ORIENTED_EDGE ( 'NONE', *, *, #37, .F. ) ;
#83 = PERSON_AND_ORGANIZATION ( #76, #49 ) ;
#84 = ORIENTED_EDGE ( 'NONE', *, *, #164, .F. ) ;
#85 = PERSON_AND_ORGANIZATION ( #76, #49 ) ;
#86 = PERSON_AND_ORGANIZATION ( #76, #49 ) ;
#87 = PERSON_AND_ORGANIZATION ( #76, #49 ) ;
#88 = COORDINATED_UNIVERSAL_TIME_OFFSET ( 2, 0, .AHEAD. ) ;
#89 = ORIENTED_EDGE ( 'NONE', *, *, #37, .T. ) ;
#90 = CC_DESIGN_APPROVAL ( #171, ( #150 ) ) ;
#91 = FACE_OUTER_BOUND ( 'NONE', #39, .T. ) ;
#92 = DIRECTION ( 'NONE',  ( 0.000000000000000000, 0.000000000000000000, 1.000000000000000000 ) ) ;
#93 = CARTESIAN_POINT ( 'NONE',  ( 12.69999999999999929, 1.555301434917138433E-15, 0.000000000000000000 ) ) ;
#94 = PERSON_AND_ORGANIZATION ( #76, #49 ) ;
#95 = CIRCLE ( 'NONE', #153, 12.70000000000251461 ) ;
#96 = APPROVAL_ROLE ( '' ) ;
#97 = APPLICATION_CONTEXT ( 'configuration controlled 3d designs of mechanical parts and assemblies' ) ;
#98 = CIRCLE ( 'NONE', #106, 12.69999999999999929 ) ;
#99 = ORIENTED_EDGE ( 'NONE', *, *, #164, .T. ) ;
#100 = FACE_OUTER_BOUND ( 'NONE', #46, .T. ) ;
#101 = SPHERICAL_SURFACE ( 'NONE', #188, 500.0000000000000000 ) ;
#102 = AXIS2_PLACEMENT_3D ( 'NONE', #29, #118, #163 ) ;
#103 = ORIENTED_EDGE ( 'NONE', *, *, #32, .F. ) ;
#104 = DIRECTION ( 'NONE',  ( 1.000000000000000000, 0.000000000000000000, 0.000000000000000000 ) ) ;
#105 = CARTESIAN_POINT ( 'NONE',  ( 6.245004513516505540E-14, 0.000000000000000000, 505.8386839771407040 ) ) ;
#106 = AXIS2_PLACEMENT_3D ( 'NONE', #133, #19, #152 ) ;
#107 = APPROVAL ( #50, 'UNSPECIFIED' ) ;
#108 = APPLICATION_CONTEXT ( 'configuration controlled 3d designs of mechanical parts and assemblies' ) ;
#109 = DATE_AND_TIME ( #122, #43 ) ;
#110 = ORIENTED_EDGE ( 'NONE', *, *, #32, .T. ) ;
#111 = PERSON_AND_ORGANIZATION_ROLE ( 'classification_officer' ) ;
#112 = APPROVAL ( #189, 'UNSPECIFIED' ) ;
#113 = ORIENTED_EDGE ( 'NONE', *, *, #180, .F. ) ;
#114 = DATE_AND_TIME ( #66, #70 ) ;
#115 = DIRECTION ( 'NONE',  ( -0.000000000000000000, -0.000000000000000000, -1.000000000000000000 ) ) ;
#116 = DIRECTION ( 'NONE',  ( 1.000000000000000000, 0.000000000000000000, 0.000000000000000000 ) ) ;
#117 = DIRECTION ( 'NONE',  ( 0.000000000000000000, 1.000000000000000000, -0.000000000000000000 ) ) ;
#118 = DIRECTION ( 'NONE',  ( -0.000000000000000000, -0.000000000000000000, -1.000000000000000000 ) ) ;
#119 = EDGE_CURVE ( 'NONE', #193, #130, #200, .T. ) ;
#120 = APPROVAL_PERSON_ORGANIZATION ( #157, #107, #96 ) ;
#121 = SHAPE_DEFINITION_REPRESENTATION ( #168, #78 ) ;
#122 = CALENDAR_DATE ( 2021, 25, 2 ) ;
#123 = MANIFOLD_SOLID_BREP ( 'Cut-Revolve1', #77 ) ;
#124 = LOCAL_TIME ( 13, 15, 32.00000000000000000, #69 ) ;
#125 = VERTEX_POINT ( 'NONE', #75 ) ;
#126 = APPROVAL_DATE_TIME ( #109, #107 ) ;
#127 = APPROVAL_ROLE ( '' ) ;
#128 = VERTEX_POINT ( 'NONE', #93 ) ;
#129 = CALENDAR_DATE ( 2021, 25, 2 ) ;
#130 = VERTEX_POINT ( 'NONE', #72 ) ;
#131 = DIRECTION ( 'NONE',  ( -1.000000000000000000, 0.000000000000000000, 0.000000000000000000 ) ) ;
#132 = FACE_OUTER_BOUND ( 'NONE', #196, .T. ) ;
#133 = CARTESIAN_POINT ( 'NONE',  ( 0.000000000000000000, 0.000000000000000000, 0.000000000000000000 ) ) ;
#134 = CC_DESIGN_SECURITY_CLASSIFICATION ( #10, ( #158 ) ) ;
#135 = CARTESIAN_POINT ( 'NONE',  ( 12.70000000000257678, 1.555301434917454174E-15, 6.000000000000005329 ) ) ;
#136 = CC_DESIGN_PERSON_AND_ORGANIZATION_ASSIGNMENT ( #86, #144, ( #185 ) ) ;
#137 = AXIS2_PLACEMENT_3D ( 'NONE', #166, #117, #92 ) ;
#138 = AXIS2_PLACEMENT_3D ( 'NONE', #44, #151, #14 ) ;
#139 = ADVANCED_FACE ( 'NONE', ( #155 ), #101, .F. ) ;
#140 = ORIENTED_EDGE ( 'NONE', *, *, #51, .F. ) ;
#141 = PERSON_AND_ORGANIZATION_ROLE ( 'creator' ) ;
#142 = UNCERTAINTY_MEASURE_WITH_UNIT (LENGTH_MEASURE( 1.000000000000000082E-05 ), #147, 'distance_accuracy_value', 'NONE');
#143 = SECURITY_CLASSIFICATION_LEVEL ( 'unclassified' ) ;
#144 = PERSON_AND_ORGANIZATION_ROLE ( 'design_owner' ) ;
#145 =( NAMED_UNIT ( * ) PLANE_ANGLE_UNIT ( ) SI_UNIT ( $, .RADIAN. ) );
#146 = ORIENTED_EDGE ( 'NONE', *, *, #51, .T. ) ;
#147 =( LENGTH_UNIT ( ) NAMED_UNIT ( * ) SI_UNIT ( .MILLI., .METRE. ) );
#148 = AXIS2_PLACEMENT_3D ( 'NONE', #182, #170, #104 ) ;
#149 = CARTESIAN_POINT ( 'NONE',  ( 6.245004513516505540E-14, 0.000000000000000000, 505.8386839771407040 ) ) ;
#150 = PRODUCT_DEFINITION ( 'UNKNOWN', '', #158, #55 ) ;
#151 = DIRECTION ( 'NONE',  ( 0.000000000000000000, 0.000000000000000000, 1.000000000000000000 ) ) ;
#152 = DIRECTION ( 'NONE',  ( 1.000000000000000000, 0.000000000000000000, 0.000000000000000000 ) ) ;
#153 = AXIS2_PLACEMENT_3D ( 'NONE', #183, #184, #15 ) ;
#154 = CC_DESIGN_DATE_AND_TIME_ASSIGNMENT ( #194, #65, ( #150 ) ) ;
#155 = FACE_OUTER_BOUND ( 'NONE', #176, .T. ) ;
#156 =( GEOMETRIC_REPRESENTATION_CONTEXT ( 3 ) GLOBAL_UNCERTAINTY_ASSIGNED_CONTEXT ( ( #142 ) ) GLOBAL_UNIT_ASSIGNED_CONTEXT ( ( #147, #145, #177 ) ) REPRESENTATION_CONTEXT ( 'NONE', 'WORKASPACE' ) );
#157 = PERSON_AND_ORGANIZATION ( #76, #49 ) ;
#158 = PRODUCT_DEFINITION_FORMATION_WITH_SPECIFIED_SOURCE ( 'ANY', '', #185, .NOT_KNOWN. ) ;
#159 = APPROVAL_PERSON_ORGANIZATION ( #94, #112, #22 ) ;
#160 = CARTESIAN_POINT ( 'NONE',  ( 0.000000000000000000, 0.000000000000000000, 0.000000000000000000 ) ) ;
#161 = EDGE_LOOP ( 'NONE', ( #140, #4, #110 ) ) ;
#162 = DIRECTION ( 'NONE',  ( -0.000000000000000000, -0.000000000000000000, -1.000000000000000000 ) ) ;
#163 = DIRECTION ( 'NONE',  ( -1.000000000000000000, 0.000000000000000000, 0.000000000000000000 ) ) ;
#164 = EDGE_CURVE ( 'NONE', #193, #6, #165, .T. ) ;
#165 = CIRCLE ( 'NONE', #18, 12.70000000000251461 ) ;
#166 = CARTESIAN_POINT ( 'NONE',  ( 6.245004513516505540E-14, 0.000000000000000000, 505.8386839771407040 ) ) ;
#167 = CARTESIAN_POINT ( 'NONE',  ( 6.245004513516505540E-14, 0.000000000000000000, 505.8386839771407040 ) ) ;
#168 = PRODUCT_DEFINITION_SHAPE ( 'NONE', 'NONE',  #150 ) ;
#169 = CC_DESIGN_PERSON_AND_ORGANIZATION_ASSIGNMENT ( #85, #141, ( #158 ) ) ;
#170 = DIRECTION ( 'NONE',  ( 0.000000000000000000, 0.000000000000000000, 1.000000000000000000 ) ) ;
#171 = APPROVAL ( #8, 'UNSPECIFIED' ) ;
#172 = DATE_TIME_ROLE ( 'classification_date' ) ;
#173 = AXIS2_PLACEMENT_3D ( 'NONE', #167, #199, #58 ) ;
#174 = COORDINATED_UNIVERSAL_TIME_OFFSET ( 2, 0, .AHEAD. ) ;
#175 = DIRECTION ( 'NONE',  ( 1.000000000000000000, 0.000000000000000000, 0.000000000000000000 ) ) ;
#176 = EDGE_LOOP ( 'NONE', ( #84, #146, #103 ) ) ;
#177 =( NAMED_UNIT ( * ) SI_UNIT ( $, .STERADIAN. ) SOLID_ANGLE_UNIT ( ) );
#178 = CIRCLE ( 'NONE', #27, 500.0000000000000000 ) ;
#179 = DATE_AND_TIME ( #56, #80 ) ;
#180 = EDGE_CURVE ( 'NONE', #6, #128, #54, .T. ) ;
#181 = DIRECTION ( 'NONE',  ( 1.224646799147353207E-16, -1.000000000000000000, 0.000000000000000000 ) ) ;
#182 = CARTESIAN_POINT ( 'NONE',  ( 0.000000000000000000, 0.000000000000000000, 0.000000000000000000 ) ) ;
#183 = CARTESIAN_POINT ( 'NONE',  ( 6.245004513516505540E-14, 0.000000000000000000, 6.000000000000005329 ) ) ;
#184 = DIRECTION ( 'NONE',  ( -0.000000000000000000, -0.000000000000000000, -1.000000000000000000 ) ) ;
#185 = PRODUCT ( '010-0210E_N-BK7_PCV_window', '010-0210E_N-BK7_PCV_window', '', ( #68 ) ) ;
#186 = CC_DESIGN_APPROVAL ( #112, ( #158 ) ) ;
#187 = ADVANCED_FACE ( 'NONE', ( #100 ), #41, .T. ) ;
#188 = AXIS2_PLACEMENT_3D ( 'NONE', #149, #198, #59 ) ;
#189 = APPROVAL_STATUS ( 'not_yet_approved' ) ;
#190 = APPLICATION_PROTOCOL_DEFINITION ( 'international standard', 'config_control_design', 1994, #108 ) ;
#191 = DIRECTION ( 'NONE',  ( -0.000000000000000000, -0.000000000000000000, -1.000000000000000000 ) ) ;
#192 = AXIS2_PLACEMENT_3D ( 'NONE', #71, #191, #131 ) ;
#193 = VERTEX_POINT ( 'NONE', #197 ) ;
#194 = DATE_AND_TIME ( #129, #124 ) ;
#195 = CC_DESIGN_PERSON_AND_ORGANIZATION_ASSIGNMENT ( #83, #111, ( #10 ) ) ;
#196 = EDGE_LOOP ( 'NONE', ( #99, #11, #53, #28 ) ) ;
#197 = CARTESIAN_POINT ( 'NONE',  ( -12.70000000000245244, 0.000000000000000000, 6.000000000000005329 ) ) ;
#198 = DIRECTION ( 'NONE',  ( 0.000000000000000000, -1.000000000000000000, -0.000000000000000000 ) ) ;
#199 = DIRECTION ( 'NONE',  ( 0.000000000000000000, -1.000000000000000000, -0.000000000000000000 ) ) ;
#200 = LINE ( 'NONE', #31, #16 ) ;
#201 = LOCAL_TIME ( 13, 15, 32.00000000000000000, #2 ) ;
ENDSEC;
END-ISO-10303-21;
