ISO-10303-21;
HEADER;
FILE_DESCRIPTION (( 'STEP AP203' ),
    '1' );
FILE_NAME ('010-0208E_N-BK7_PCV_window.STEP',
    '2021-02-25T11:09:49',
    ( '' ),
    ( '' ),
    'SwSTEP 2.0',
    'SolidWorks 2019',
    '' );
FILE_SCHEMA (( 'CONFIG_CONTROL_DESIGN' ));
ENDSEC;

DATA;
#1 = DATE_TIME_ROLE ( 'classification_date' ) ;
#2 = PRODUCT_DEFINITION_SHAPE ( 'NONE', 'NONE',  #89 ) ;
#3 = AXIS2_PLACEMENT_3D ( 'NONE', #127, #96, #97 ) ;
#4 = CARTESIAN_POINT ( 'NONE',  ( 1.734723475976807094E-14, 0.000000000000000000, 6.000000000000005329 ) ) ;
#5 = CARTESIAN_POINT ( 'NONE',  ( 12.69999999999999929, 1.555301434917138433E-15, 6.000000000000000000 ) ) ;
#6 = CARTESIAN_POINT ( 'NONE',  ( 0.000000000000000000, 0.000000000000000000, 6.000000000000000000 ) ) ;
#7 = PERSON_AND_ORGANIZATION ( #65, #147 ) ;
#8 = CARTESIAN_POINT ( 'NONE',  ( 0.000000000000000000, 0.000000000000000000, 0.000000000000000000 ) ) ;
#9 = EDGE_CURVE ( 'NONE', #184, #58, #134, .T. ) ;
#10 = ORIENTED_EDGE ( 'NONE', *, *, #174, .F. ) ;
#11 = LOCAL_TIME ( 13, 9, 49.00000000000000000, #61 ) ;
#12 = ORIENTED_EDGE ( 'NONE', *, *, #9, .T. ) ;
#13 = SHAPE_DEFINITION_REPRESENTATION ( #2, #103 ) ;
#14 = PRODUCT_RELATED_PRODUCT_CATEGORY ( 'detail', '', ( #31 ) ) ;
#15 = APPROVAL ( #151, 'UNSPECIFIED' ) ;
#16 = PERSON_AND_ORGANIZATION ( #65, #147 ) ;
#17 = PERSON_AND_ORGANIZATION_ROLE ( 'classification_officer' ) ;
#18 = CIRCLE ( 'NONE', #55, 125.0000000000000000 ) ;
#19 = DIRECTION ( 'NONE',  ( 0.000000000000000000, 0.000000000000000000, 1.000000000000000000 ) ) ;
#20 = CARTESIAN_POINT ( 'NONE',  ( -12.69999999999999929, 0.000000000000000000, 0.000000000000000000 ) ) ;
#21 = DIRECTION ( 'NONE',  ( 0.000000000000000000, 0.000000000000000000, 1.000000000000000000 ) ) ;
#22 = COORDINATED_UNIVERSAL_TIME_OFFSET ( 2, 0, .AHEAD. ) ;
#23 = AXIS2_PLACEMENT_3D ( 'NONE', #98, #131, #179 ) ;
#24 = PERSON_AND_ORGANIZATION ( #65, #147 ) ;
#25 =( NAMED_UNIT ( * ) SI_UNIT ( $, .STERADIAN. ) SOLID_ANGLE_UNIT ( ) );
#26 = ORIENTED_EDGE ( 'NONE', *, *, #137, .F. ) ;
#27 = CIRCLE ( 'NONE', #143, 12.69999999999999929 ) ;
#28 = LOCAL_TIME ( 13, 9, 49.00000000000000000, #22 ) ;
#29 = APPROVAL_DATE_TIME ( #201, #87 ) ;
#30 = CARTESIAN_POINT ( 'NONE',  ( 0.000000000000000000, 0.000000000000000000, 6.000000000000000000 ) ) ;
#31 = PRODUCT ( '010-0208E_N-BK7_PCV_window', '010-0208E_N-BK7_PCV_window', '', ( #178 ) ) ;
#32 = PERSON_AND_ORGANIZATION_ROLE ( 'design_supplier' ) ;
#33 = CARTESIAN_POINT ( 'NONE',  ( -12.69999999999999929, 0.000000000000000000, 6.000000000000000000 ) ) ;
#34 = DIRECTION ( 'NONE',  ( 1.000000000000000000, 0.000000000000000000, 0.000000000000000000 ) ) ;
#35 = LINE ( 'NONE', #33, #100 ) ;
#36 = APPROVAL_ROLE ( '' ) ;
#37 = PERSON_AND_ORGANIZATION_ROLE ( 'design_owner' ) ;
#38 = APPROVAL_PERSON_ORGANIZATION ( #150, #15, #36 ) ;
#39 =( GEOMETRIC_REPRESENTATION_CONTEXT ( 3 ) GLOBAL_UNCERTAINTY_ASSIGNED_CONTEXT ( ( #142 ) ) GLOBAL_UNIT_ASSIGNED_CONTEXT ( ( #132, #84, #25 ) ) REPRESENTATION_CONTEXT ( 'NONE', 'WORKASPACE' ) );
#40 = EDGE_LOOP ( 'NONE', ( #88, #170, #185 ) ) ;
#41 = ADVANCED_FACE ( 'NONE', ( #188 ), #123, .T. ) ;
#42 = AXIS2_PLACEMENT_3D ( 'NONE', #141, #83, #34 ) ;
#43 = ORIENTED_EDGE ( 'NONE', *, *, #9, .F. ) ;
#44 = CALENDAR_DATE ( 2021, 25, 2 ) ;
#45 = APPROVAL_ROLE ( '' ) ;
#46 = CIRCLE ( 'NONE', #189, 12.70000000000012363 ) ;
#47 = LOCAL_TIME ( 13, 9, 49.00000000000000000, #148 ) ;
#48 = PERSON_AND_ORGANIZATION ( #65, #147 ) ;
#49 = DIRECTION ( 'NONE',  ( 1.000000000000000000, 0.000000000000000000, 0.000000000000000000 ) ) ;
#50 = ADVANCED_FACE ( 'NONE', ( #95 ), #172, .F. ) ;
#51 = DIRECTION ( 'NONE',  ( 1.000000000000000000, 1.224646799147353207E-16, 0.000000000000000000 ) ) ;
#52 = CC_DESIGN_DATE_AND_TIME_ASSIGNMENT ( #175, #1, ( #190 ) ) ;
#53 = CALENDAR_DATE ( 2021, 25, 2 ) ;
#54 = CARTESIAN_POINT ( 'NONE',  ( 0.000000000000000000, 0.000000000000000000, 0.000000000000000000 ) ) ;
#55 = AXIS2_PLACEMENT_3D ( 'NONE', #128, #194, #51 ) ;
#56 = CARTESIAN_POINT ( 'NONE',  ( 1.734723475976807094E-14, 0.000000000000000000, 130.3531664253065969 ) ) ;
#57 = DIRECTION ( 'NONE',  ( 0.000000000000000000, 0.000000000000000000, 1.000000000000000000 ) ) ;
#58 = VERTEX_POINT ( 'NONE', #20 ) ;
#59 = ORIENTED_EDGE ( 'NONE', *, *, #86, .T. ) ;
#60 = APPROVAL_STATUS ( 'not_yet_approved' ) ;
#61 = COORDINATED_UNIVERSAL_TIME_OFFSET ( 2, 0, .AHEAD. ) ;
#62 = CC_DESIGN_SECURITY_CLASSIFICATION ( #190, ( #183 ) ) ;
#63 = APPROVAL_ROLE ( '' ) ;
#64 = VECTOR ( 'NONE', #112, 1000.000000000000000 ) ;
#65 = PERSON ( 'UNSPECIFIED', 'UNSPECIFIED', 'UNSPECIFIED', ('UNSPECIFIED'), ('UNSPECIFIED'), ('UNSPECIFIED') ) ;
#66 = CARTESIAN_POINT ( 'NONE',  ( 1.734723475976807094E-14, 0.000000000000000000, 130.3531664253065969 ) ) ;
#67 = CARTESIAN_POINT ( 'NONE',  ( 0.000000000000000000, 0.000000000000000000, 0.000000000000000000 ) ) ;
#68 = CARTESIAN_POINT ( 'NONE',  ( 12.69999999999999929, 1.555301434917138433E-15, 0.000000000000000000 ) ) ;
#69 = LOCAL_TIME ( 13, 9, 49.00000000000000000, #92 ) ;
#70 = DIRECTION ( 'NONE',  ( -1.000000000000000000, 0.000000000000000000, 0.000000000000000000 ) ) ;
#71 = PERSON_AND_ORGANIZATION_ROLE ( 'creator' ) ;
#72 = CIRCLE ( 'NONE', #3, 12.70000000000012363 ) ;
#73 = CC_DESIGN_APPROVAL ( #76, ( #183 ) ) ;
#74 = ORIENTED_EDGE ( 'NONE', *, *, #153, .F. ) ;
#75 = ORIENTED_EDGE ( 'NONE', *, *, #174, .T. ) ;
#76 = APPROVAL ( #161, 'UNSPECIFIED' ) ;
#77 = CALENDAR_DATE ( 2021, 25, 2 ) ;
#78 = EDGE_CURVE ( 'NONE', #200, #184, #176, .T. ) ;
#79 = DIRECTION ( 'NONE',  ( -0.000000000000000000, -0.000000000000000000, -1.000000000000000000 ) ) ;
#80 = DATE_AND_TIME ( #191, #167 ) ;
#81 = AXIS2_PLACEMENT_3D ( 'NONE', #30, #79, #160 ) ;
#82 = DIRECTION ( 'NONE',  ( 0.000000000000000000, 0.000000000000000000, 1.000000000000000000 ) ) ;
#83 = DIRECTION ( 'NONE',  ( 0.000000000000000000, -1.000000000000000000, -0.000000000000000000 ) ) ;
#84 =( NAMED_UNIT ( * ) PLANE_ANGLE_UNIT ( ) SI_UNIT ( $, .RADIAN. ) );
#85 = CC_DESIGN_APPROVAL ( #15, ( #89 ) ) ;
#86 = EDGE_CURVE ( 'NONE', #200, #136, #72, .T. ) ;
#87 = APPROVAL ( #60, 'UNSPECIFIED' ) ;
#88 = ORIENTED_EDGE ( 'NONE', *, *, #129, .F. ) ;
#89 = PRODUCT_DEFINITION ( 'UNKNOWN', '', #183, #192 ) ;
#90 = AXIS2_PLACEMENT_3D ( 'NONE', #67, #82, #193 ) ;
#91 = ORIENTED_EDGE ( 'NONE', *, *, #137, .T. ) ;
#92 = COORDINATED_UNIVERSAL_TIME_OFFSET ( 2, 0, .AHEAD. ) ;
#93 = ADVANCED_FACE ( 'NONE', ( #164 ), #145, .F. ) ;
#94 = PERSON_AND_ORGANIZATION_ROLE ( 'creator' ) ;
#95 = FACE_OUTER_BOUND ( 'NONE', #40, .T. ) ;
#96 = DIRECTION ( 'NONE',  ( -0.000000000000000000, -0.000000000000000000, -1.000000000000000000 ) ) ;
#97 = DIRECTION ( 'NONE',  ( 1.000000000000000000, 0.000000000000000000, 0.000000000000000000 ) ) ;
#98 = CARTESIAN_POINT ( 'NONE',  ( 0.000000000000000000, 0.000000000000000000, 0.000000000000000000 ) ) ;
#99 = DATE_AND_TIME ( #53, #28 ) ;
#100 = VECTOR ( 'NONE', #106, 1000.000000000000000 ) ;
#101 = APPROVAL_PERSON_ORGANIZATION ( #16, #76, #63 ) ;
#102 = DIRECTION ( 'NONE',  ( 1.000000000000000000, 0.000000000000000000, 0.000000000000000000 ) ) ;
#103 = ADVANCED_BREP_SHAPE_REPRESENTATION ( '010-0208E_N-BK7_PCV_window', ( #159, #23 ), #39 ) ;
#104 = EDGE_LOOP ( 'NONE', ( #91, #121, #12, #74 ) ) ;
#105 = AXIS2_PLACEMENT_3D ( 'NONE', #8, #57, #158 ) ;
#106 = DIRECTION ( 'NONE',  ( -0.000000000000000000, -0.000000000000000000, -1.000000000000000000 ) ) ;
#107 = EDGE_LOOP ( 'NONE', ( #26, #120, #135 ) ) ;
#108 = EDGE_CURVE ( 'NONE', #200, #140, #125, .T. ) ;
#109 = PERSON_AND_ORGANIZATION ( #65, #147 ) ;
#110 = APPROVAL_DATE_TIME ( #80, #76 ) ;
#111 = APPLICATION_CONTEXT ( 'configuration controlled 3d designs of mechanical parts and assemblies' ) ;
#112 = DIRECTION ( 'NONE',  ( -0.000000000000000000, -0.000000000000000000, -1.000000000000000000 ) ) ;
#113 = DIRECTION ( 'NONE',  ( -0.000000000000000000, -0.000000000000000000, -1.000000000000000000 ) ) ;
#114 = APPLICATION_PROTOCOL_DEFINITION ( 'international standard', 'config_control_design', 1994, #111 ) ;
#115 = FACE_OUTER_BOUND ( 'NONE', #104, .T. ) ;
#116 = DIRECTION ( 'NONE',  ( 1.000000000000000000, 0.000000000000000000, 0.000000000000000000 ) ) ;
#117 = AXIS2_PLACEMENT_3D ( 'NONE', #66, #163, #19 ) ;
#118 = CARTESIAN_POINT ( 'NONE',  ( 12.70000000000013962, 1.555301434917155788E-15, 6.000000000000005329 ) ) ;
#119 = CC_DESIGN_PERSON_AND_ORGANIZATION_ASSIGNMENT ( #48, #94, ( #183 ) ) ;
#120 = ORIENTED_EDGE ( 'NONE', *, *, #129, .T. ) ;
#121 = ORIENTED_EDGE ( 'NONE', *, *, #78, .T. ) ;
#122 = CC_DESIGN_PERSON_AND_ORGANIZATION_ASSIGNMENT ( #109, #32, ( #183 ) ) ;
#123 = CYLINDRICAL_SURFACE ( 'NONE', #81, 12.69999999999999929 ) ;
#124 = COORDINATED_UNIVERSAL_TIME_OFFSET ( 2, 0, .AHEAD. ) ;
#125 = CIRCLE ( 'NONE', #117, 125.0000000000000000 ) ;
#126 = APPROVAL_PERSON_ORGANIZATION ( #157, #87, #45 ) ;
#127 = CARTESIAN_POINT ( 'NONE',  ( 1.734723475976807094E-14, 0.000000000000000000, 6.000000000000005329 ) ) ;
#128 = CARTESIAN_POINT ( 'NONE',  ( 1.734723475976807094E-14, 0.000000000000000000, 130.3531664253065969 ) ) ;
#129 = EDGE_CURVE ( 'NONE', #136, #140, #18, .T. ) ;
#130 = DIRECTION ( 'NONE',  ( 0.000000000000000000, -1.000000000000000000, -0.000000000000000000 ) ) ;
#131 = DIRECTION ( 'NONE',  ( 0.000000000000000000, 0.000000000000000000, 1.000000000000000000 ) ) ;
#132 =( LENGTH_UNIT ( ) NAMED_UNIT ( * ) SI_UNIT ( .MILLI., .METRE. ) );
#133 = DATE_AND_TIME ( #146, #47 ) ;
#134 = CIRCLE ( 'NONE', #105, 12.69999999999999929 ) ;
#135 = ORIENTED_EDGE ( 'NONE', *, *, #108, .F. ) ;
#136 = VERTEX_POINT ( 'NONE', #144 ) ;
#137 = EDGE_CURVE ( 'NONE', #136, #200, #46, .T. ) ;
#138 = APPLICATION_CONTEXT ( 'configuration controlled 3d designs of mechanical parts and assemblies' ) ;
#139 = ORIENTED_EDGE ( 'NONE', *, *, #153, .T. ) ;
#140 = VERTEX_POINT ( 'NONE', #177 ) ;
#141 = CARTESIAN_POINT ( 'NONE',  ( 1.734723475976807094E-14, 0.000000000000000000, 130.3531664253065969 ) ) ;
#142 = UNCERTAINTY_MEASURE_WITH_UNIT (LENGTH_MEASURE( 1.000000000000000082E-05 ), #132, 'distance_accuracy_value', 'NONE');
#143 = AXIS2_PLACEMENT_3D ( 'NONE', #54, #21, #116 ) ;
#144 = CARTESIAN_POINT ( 'NONE',  ( -12.70000000000010765, 0.000000000000000000, 6.000000000000005329 ) ) ;
#145 = PLANE ( 'NONE',  #90 ) ;
#146 = CALENDAR_DATE ( 2021, 25, 2 ) ;
#147 = ORGANIZATION ( 'UNSPECIFIED', 'UNSPECIFIED', '' ) ;
#148 = COORDINATED_UNIVERSAL_TIME_OFFSET ( 2, 0, .AHEAD. ) ;
#149 = CC_DESIGN_PERSON_AND_ORGANIZATION_ASSIGNMENT ( #7, #71, ( #89 ) ) ;
#150 = PERSON_AND_ORGANIZATION ( #65, #147 ) ;
#151 = APPROVAL_STATUS ( 'not_yet_approved' ) ;
#152 = CC_DESIGN_DATE_AND_TIME_ASSIGNMENT ( #133, #197, ( #89 ) ) ;
#153 = EDGE_CURVE ( 'NONE', #136, #58, #35, .T. ) ;
#154 = CC_DESIGN_APPROVAL ( #87, ( #190 ) ) ;
#155 = PERSON_AND_ORGANIZATION ( #65, #147 ) ;
#156 = ADVANCED_FACE ( 'NONE', ( #115 ), #165, .T. ) ;
#157 = PERSON_AND_ORGANIZATION ( #65, #147 ) ;
#158 = DIRECTION ( 'NONE',  ( 1.000000000000000000, 0.000000000000000000, 0.000000000000000000 ) ) ;
#159 = MANIFOLD_SOLID_BREP ( 'Cut-Revolve1', #166 ) ;
#160 = DIRECTION ( 'NONE',  ( -1.000000000000000000, 0.000000000000000000, 0.000000000000000000 ) ) ;
#161 = APPROVAL_STATUS ( 'not_yet_approved' ) ;
#162 = AXIS2_PLACEMENT_3D ( 'NONE', #6, #169, #70 ) ;
#163 = DIRECTION ( 'NONE',  ( 0.000000000000000000, 1.000000000000000000, -0.000000000000000000 ) ) ;
#164 = FACE_OUTER_BOUND ( 'NONE', #173, .T. ) ;
#165 = CYLINDRICAL_SURFACE ( 'NONE', #162, 12.69999999999999929 ) ;
#166 = CLOSED_SHELL ( 'NONE', ( #187, #156, #41, #93, #50 ) ) ;
#167 = LOCAL_TIME ( 13, 9, 49.00000000000000000, #124 ) ;
#168 = APPROVAL_DATE_TIME ( #99, #15 ) ;
#169 = DIRECTION ( 'NONE',  ( -0.000000000000000000, -0.000000000000000000, -1.000000000000000000 ) ) ;
#170 = ORIENTED_EDGE ( 'NONE', *, *, #86, .F. ) ;
#171 = CC_DESIGN_PERSON_AND_ORGANIZATION_ASSIGNMENT ( #155, #17, ( #190 ) ) ;
#172 = SPHERICAL_SURFACE ( 'NONE', #42, 125.0000000000000000 ) ;
#173 = EDGE_LOOP ( 'NONE', ( #10, #43 ) ) ;
#174 = EDGE_CURVE ( 'NONE', #58, #184, #27, .T. ) ;
#175 = DATE_AND_TIME ( #77, #11 ) ;
#176 = LINE ( 'NONE', #5, #64 ) ;
#177 = CARTESIAN_POINT ( 'NONE',  ( 2.500127725443903033E-14, 0.000000000000000000, 5.353166425306588039 ) ) ;
#178 = MECHANICAL_CONTEXT ( 'NONE', #111, 'mechanical' ) ;
#179 = DIRECTION ( 'NONE',  ( 1.000000000000000000, 0.000000000000000000, 0.000000000000000000 ) ) ;
#180 = SPHERICAL_SURFACE ( 'NONE', #196, 125.0000000000000000 ) ;
#181 = APPLICATION_PROTOCOL_DEFINITION ( 'international standard', 'config_control_design', 1994, #138 ) ;
#182 = EDGE_LOOP ( 'NONE', ( #199, #59, #139, #75 ) ) ;
#183 = PRODUCT_DEFINITION_FORMATION_WITH_SPECIFIED_SOURCE ( 'ANY', '', #31, .NOT_KNOWN. ) ;
#184 = VERTEX_POINT ( 'NONE', #68 ) ;
#185 = ORIENTED_EDGE ( 'NONE', *, *, #108, .T. ) ;
#186 = SECURITY_CLASSIFICATION_LEVEL ( 'unclassified' ) ;
#187 = ADVANCED_FACE ( 'NONE', ( #195 ), #180, .F. ) ;
#188 = FACE_OUTER_BOUND ( 'NONE', #182, .T. ) ;
#189 = AXIS2_PLACEMENT_3D ( 'NONE', #4, #113, #49 ) ;
#190 = SECURITY_CLASSIFICATION ( '', '', #186 ) ;
#191 = CALENDAR_DATE ( 2021, 25, 2 ) ;
#192 = DESIGN_CONTEXT ( 'detailed design', #138, 'design' ) ;
#193 = DIRECTION ( 'NONE',  ( 1.000000000000000000, 0.000000000000000000, -0.000000000000000000 ) ) ;
#194 = DIRECTION ( 'NONE',  ( 1.224646799147353207E-16, -1.000000000000000000, 0.000000000000000000 ) ) ;
#195 = FACE_OUTER_BOUND ( 'NONE', #107, .T. ) ;
#196 = AXIS2_PLACEMENT_3D ( 'NONE', #56, #130, #102 ) ;
#197 = DATE_TIME_ROLE ( 'creation_date' ) ;
#198 = CC_DESIGN_PERSON_AND_ORGANIZATION_ASSIGNMENT ( #24, #37, ( #31 ) ) ;
#199 = ORIENTED_EDGE ( 'NONE', *, *, #78, .F. ) ;
#200 = VERTEX_POINT ( 'NONE', #118 ) ;
#201 = DATE_AND_TIME ( #44, #69 ) ;
ENDSEC;
END-ISO-10303-21;
