ISO-10303-21;
HEADER;
FILE_DESCRIPTION (( 'STEP AP203' ),
    '1' );
FILE_NAME ('010-0207E_N-BK7_PCV_mirror.STEP',
    '2021-02-25T10:48:01',
    ( '' ),
    ( '' ),
    'SwSTEP 2.0',
    'SolidWorks 2019',
    '' );
FILE_SCHEMA (( 'CONFIG_CONTROL_DESIGN' ));
ENDSEC;

DATA;
#1 = CARTESIAN_POINT ( 'NONE',  ( -12.69999999999999929, 0.000000000000000000, 0.000000000000000000 ) ) ;
#2 = CC_DESIGN_SECURITY_CLASSIFICATION ( #130, ( #62 ) ) ;
#3 = COORDINATED_UNIVERSAL_TIME_OFFSET ( 2, 0, .AHEAD. ) ;
#4 = AXIS2_PLACEMENT_3D ( 'NONE', #149, #74, #135 ) ;
#5 = ORIENTED_EDGE ( 'NONE', *, *, #73, .T. ) ;
#6 = CARTESIAN_POINT ( 'NONE',  ( 12.69999999999999751, 1.555301434917138235E-15, 6.000000000000005329 ) ) ;
#7 = ORGANIZATION ( 'UNSPECIFIED', 'UNSPECIFIED', '' ) ;
#8 = ORIENTED_EDGE ( 'NONE', *, *, #168, .F. ) ;
#9 = DIRECTION ( 'NONE',  ( -0.000000000000000000, -0.000000000000000000, -1.000000000000000000 ) ) ;
#10 = FACE_OUTER_BOUND ( 'NONE', #104, .T. ) ;
#11 = PERSON ( 'UNSPECIFIED', 'UNSPECIFIED', 'UNSPECIFIED', ('UNSPECIFIED'), ('UNSPECIFIED'), ('UNSPECIFIED') ) ;
#12 = PERSON_AND_ORGANIZATION ( #11, #7 ) ;
#13 = CARTESIAN_POINT ( 'NONE',  ( 1.040834085586084257E-14, 0.000000000000000000, 79.91691281432146354 ) ) ;
#14 = CC_DESIGN_APPROVAL ( #98, ( #62 ) ) ;
#15 =( LENGTH_UNIT ( ) NAMED_UNIT ( * ) SI_UNIT ( .MILLI., .METRE. ) );
#16 = APPROVAL_DATE_TIME ( #144, #98 ) ;
#17 = AXIS2_PLACEMENT_3D ( 'NONE', #66, #126, #60 ) ;
#18 = APPROVAL_STATUS ( 'not_yet_approved' ) ;
#19 = ORIENTED_EDGE ( 'NONE', *, *, #65, .F. ) ;
#20 = ORIENTED_EDGE ( 'NONE', *, *, #82, .T. ) ;
#21 = DATE_TIME_ROLE ( 'classification_date' ) ;
#22 = CIRCLE ( 'NONE', #40, 12.69999999999998685 ) ;
#23 = ADVANCED_FACE ( 'NONE', ( #44 ), #163, .F. ) ;
#24 = DIRECTION ( 'NONE',  ( -1.000000000000000000, 0.000000000000000000, 0.000000000000000000 ) ) ;
#25 = CC_DESIGN_PERSON_AND_ORGANIZATION_ASSIGNMENT ( #127, #191, ( #62 ) ) ;
#26 = LOCAL_TIME ( 12, 48, 1.000000000000000000, #103 ) ;
#27 = LOCAL_TIME ( 12, 48, 1.000000000000000000, #75 ) ;
#28 = DIRECTION ( 'NONE',  ( 1.000000000000000000, 0.000000000000000000, 0.000000000000000000 ) ) ;
#29 = LINE ( 'NONE', #95, #177 ) ;
#30 = CARTESIAN_POINT ( 'NONE',  ( 1.040834085586084257E-14, 0.000000000000000000, 79.91691281432146354 ) ) ;
#31 = CIRCLE ( 'NONE', #143, 75.00000000000000000 ) ;
#32 = DIRECTION ( 'NONE',  ( 1.000000000000000000, 0.000000000000000000, 0.000000000000000000 ) ) ;
#33 = CC_DESIGN_PERSON_AND_ORGANIZATION_ASSIGNMENT ( #51, #41, ( #62 ) ) ;
#34 = PERSON_AND_ORGANIZATION_ROLE ( 'design_owner' ) ;
#35 = PERSON_AND_ORGANIZATION ( #11, #7 ) ;
#36 = AXIS2_PLACEMENT_3D ( 'NONE', #190, #125, #170 ) ;
#37 = DATE_AND_TIME ( #69, #140 ) ;
#38 = VERTEX_POINT ( 'NONE', #161 ) ;
#39 = ORIENTED_EDGE ( 'NONE', *, *, #65, .T. ) ;
#40 = AXIS2_PLACEMENT_3D ( 'NONE', #113, #111, #32 ) ;
#41 = PERSON_AND_ORGANIZATION_ROLE ( 'design_supplier' ) ;
#42 = CC_DESIGN_DATE_AND_TIME_ASSIGNMENT ( #58, #21, ( #130 ) ) ;
#43 = ORIENTED_EDGE ( 'NONE', *, *, #162, .T. ) ;
#44 = FACE_OUTER_BOUND ( 'NONE', #55, .T. ) ;
#45 = AXIS2_PLACEMENT_3D ( 'NONE', #13, #167, #64 ) ;
#46 = CARTESIAN_POINT ( 'NONE',  ( 1.040834085586084257E-14, 0.000000000000000000, 6.000000000000005329 ) ) ;
#47 = UNCERTAINTY_MEASURE_WITH_UNIT (LENGTH_MEASURE( 1.000000000000000082E-05 ), #15, 'distance_accuracy_value', 'NONE');
#48 = AXIS2_PLACEMENT_3D ( 'NONE', #76, #165, #28 ) ;
#49 = PRODUCT_DEFINITION ( 'UNKNOWN', '', #62, #86 ) ;
#50 = DATE_AND_TIME ( #171, #26 ) ;
#51 = PERSON_AND_ORGANIZATION ( #11, #7 ) ;
#52 = APPROVAL_ROLE ( '' ) ;
#53 = EDGE_CURVE ( 'NONE', #173, #38, #120, .T. ) ;
#54 = PERSON_AND_ORGANIZATION_ROLE ( 'classification_officer' ) ;
#55 = EDGE_LOOP ( 'NONE', ( #131, #160 ) ) ;
#56 = ORIENTED_EDGE ( 'NONE', *, *, #73, .F. ) ;
#57 = DIRECTION ( 'NONE',  ( 1.000000000000000000, 1.224646799147353207E-16, 0.000000000000000000 ) ) ;
#58 = DATE_AND_TIME ( #196, #27 ) ;
#59 = CYLINDRICAL_SURFACE ( 'NONE', #159, 12.69999999999999929 ) ;
#60 = DIRECTION ( 'NONE',  ( 1.000000000000000000, 0.000000000000000000, 0.000000000000000000 ) ) ;
#61 = MANIFOLD_SOLID_BREP ( 'Cut-Revolve1', #94 ) ;
#62 = PRODUCT_DEFINITION_FORMATION_WITH_SPECIFIED_SOURCE ( 'ANY', '', #78, .NOT_KNOWN. ) ;
#63 = CC_DESIGN_DATE_AND_TIME_ASSIGNMENT ( #37, #68, ( #49 ) ) ;
#64 = DIRECTION ( 'NONE',  ( 1.000000000000000000, 0.000000000000000000, 0.000000000000000000 ) ) ;
#65 = EDGE_CURVE ( 'NONE', #119, #139, #31, .T. ) ;
#66 = CARTESIAN_POINT ( 'NONE',  ( 0.000000000000000000, 0.000000000000000000, 0.000000000000000000 ) ) ;
#67 = CC_DESIGN_APPROVAL ( #193, ( #49 ) ) ;
#68 = DATE_TIME_ROLE ( 'creation_date' ) ;
#69 = CALENDAR_DATE ( 2021, 25, 2 ) ;
#70 = ORIENTED_EDGE ( 'NONE', *, *, #132, .F. ) ;
#71 = AXIS2_PLACEMENT_3D ( 'NONE', #180, #124, #57 ) ;
#72 = DATE_AND_TIME ( #194, #141 ) ;
#73 = EDGE_CURVE ( 'NONE', #119, #38, #29, .T. ) ;
#74 = DIRECTION ( 'NONE',  ( 0.000000000000000000, -1.000000000000000000, -0.000000000000000000 ) ) ;
#75 = COORDINATED_UNIVERSAL_TIME_OFFSET ( 2, 0, .AHEAD. ) ;
#76 = CARTESIAN_POINT ( 'NONE',  ( 0.000000000000000000, 0.000000000000000000, 0.000000000000000000 ) ) ;
#77 = ADVANCED_BREP_SHAPE_REPRESENTATION ( '010-0207E_N-BK7_PCV_mirror', ( #61, #36 ), #101 ) ;
#78 = PRODUCT ( '010-0207E_N-BK7_PCV_mirror', '010-0207E_N-BK7_PCV_mirror', '', ( #158 ) ) ;
#79 = FACE_OUTER_BOUND ( 'NONE', #93, .T. ) ;
#80 = CC_DESIGN_PERSON_AND_ORGANIZATION_ASSIGNMENT ( #12, #34, ( #78 ) ) ;
#81 = APPLICATION_PROTOCOL_DEFINITION ( 'international standard', 'config_control_design', 1994, #188 ) ;
#82 = EDGE_CURVE ( 'NONE', #106, #139, #87, .T. ) ;
#83 = LOCAL_TIME ( 12, 48, 1.000000000000000000, #116 ) ;
#84 = APPLICATION_CONTEXT ( 'configuration controlled 3d designs of mechanical parts and assemblies' ) ;
#85 = DIRECTION ( 'NONE',  ( -0.000000000000000000, -0.000000000000000000, -1.000000000000000000 ) ) ;
#86 = DESIGN_CONTEXT ( 'detailed design', #84, 'design' ) ;
#87 = CIRCLE ( 'NONE', #71, 75.00000000000000000 ) ;
#88 = EDGE_LOOP ( 'NONE', ( #56, #43, #118, #129 ) ) ;
#89 = CC_DESIGN_APPROVAL ( #147, ( #130 ) ) ;
#90 = APPLICATION_PROTOCOL_DEFINITION ( 'international standard', 'config_control_design', 1994, #84 ) ;
#91 = ORIENTED_EDGE ( 'NONE', *, *, #168, .T. ) ;
#92 = APPROVAL_ROLE ( '' ) ;
#93 = EDGE_LOOP ( 'NONE', ( #91, #5, #148, #70 ) ) ;
#94 = CLOSED_SHELL ( 'NONE', ( #115, #105, #136, #23, #184 ) ) ;
#95 = CARTESIAN_POINT ( 'NONE',  ( 12.69999999999999929, 1.555301434917138433E-15, 6.000000000000000000 ) ) ;
#96 = DIRECTION ( 'NONE',  ( -0.000000000000000000, -0.000000000000000000, -1.000000000000000000 ) ) ;
#97 = DIRECTION ( 'NONE',  ( -1.000000000000000000, 0.000000000000000000, 0.000000000000000000 ) ) ;
#98 = APPROVAL ( #192, 'UNSPECIFIED' ) ;
#99 = CARTESIAN_POINT ( 'NONE',  ( 0.000000000000000000, 0.000000000000000000, 6.000000000000000000 ) ) ;
#100 = PERSON_AND_ORGANIZATION ( #11, #7 ) ;
#101 =( GEOMETRIC_REPRESENTATION_CONTEXT ( 3 ) GLOBAL_UNCERTAINTY_ASSIGNED_CONTEXT ( ( #47 ) ) GLOBAL_UNIT_ASSIGNED_CONTEXT ( ( #15, #169, #187 ) ) REPRESENTATION_CONTEXT ( 'NONE', 'WORKASPACE' ) );
#102 = CC_DESIGN_PERSON_AND_ORGANIZATION_ASSIGNMENT ( #128, #114, ( #49 ) ) ;
#103 = COORDINATED_UNIVERSAL_TIME_OFFSET ( 2, 0, .AHEAD. ) ;
#104 = EDGE_LOOP ( 'NONE', ( #8, #20, #19 ) ) ;
#105 = ADVANCED_FACE ( 'NONE', ( #79 ), #59, .T. ) ;
#106 = VERTEX_POINT ( 'NONE', #153 ) ;
#107 = COORDINATED_UNIVERSAL_TIME_OFFSET ( 2, 0, .AHEAD. ) ;
#108 = APPROVAL_PERSON_ORGANIZATION ( #100, #98, #52 ) ;
#109 = CARTESIAN_POINT ( 'NONE',  ( 0.000000000000000000, 0.000000000000000000, 0.000000000000000000 ) ) ;
#110 = FACE_OUTER_BOUND ( 'NONE', #175, .T. ) ;
#111 = DIRECTION ( 'NONE',  ( -0.000000000000000000, -0.000000000000000000, -1.000000000000000000 ) ) ;
#112 = CARTESIAN_POINT ( 'NONE',  ( 1.500076635266341693E-14, 0.000000000000000000, 4.916912814321467096 ) ) ;
#113 = CARTESIAN_POINT ( 'NONE',  ( 1.040834085586084257E-14, 0.000000000000000000, 6.000000000000005329 ) ) ;
#114 = PERSON_AND_ORGANIZATION_ROLE ( 'creator' ) ;
#115 = ADVANCED_FACE ( 'NONE', ( #10 ), #183, .F. ) ;
#116 = COORDINATED_UNIVERSAL_TIME_OFFSET ( 2, 0, .AHEAD. ) ;
#117 = CIRCLE ( 'NONE', #197, 12.69999999999998685 ) ;
#118 = ORIENTED_EDGE ( 'NONE', *, *, #132, .T. ) ;
#119 = VERTEX_POINT ( 'NONE', #6 ) ;
#120 = CIRCLE ( 'NONE', #48, 12.69999999999999929 ) ;
#121 = SHAPE_DEFINITION_REPRESENTATION ( #198, #77 ) ;
#122 = ORIENTED_EDGE ( 'NONE', *, *, #82, .F. ) ;
#123 = DIRECTION ( 'NONE',  ( 0.000000000000000000, 1.000000000000000000, -0.000000000000000000 ) ) ;
#124 = DIRECTION ( 'NONE',  ( 1.224646799147353207E-16, -1.000000000000000000, 0.000000000000000000 ) ) ;
#125 = DIRECTION ( 'NONE',  ( 0.000000000000000000, 0.000000000000000000, 1.000000000000000000 ) ) ;
#126 = DIRECTION ( 'NONE',  ( 0.000000000000000000, 0.000000000000000000, 1.000000000000000000 ) ) ;
#127 = PERSON_AND_ORGANIZATION ( #11, #7 ) ;
#128 = PERSON_AND_ORGANIZATION ( #11, #7 ) ;
#129 = ORIENTED_EDGE ( 'NONE', *, *, #53, .T. ) ;
#130 = SECURITY_CLASSIFICATION ( '', '', #179 ) ;
#131 = ORIENTED_EDGE ( 'NONE', *, *, #53, .F. ) ;
#132 = EDGE_CURVE ( 'NONE', #106, #173, #195, .T. ) ;
#133 = APPROVAL_STATUS ( 'not_yet_approved' ) ;
#134 = CIRCLE ( 'NONE', #17, 12.69999999999999929 ) ;
#135 = DIRECTION ( 'NONE',  ( 1.000000000000000000, 0.000000000000000000, 0.000000000000000000 ) ) ;
#136 = ADVANCED_FACE ( 'NONE', ( #156 ), #154, .T. ) ;
#137 = DIRECTION ( 'NONE',  ( 1.000000000000000000, 0.000000000000000000, -0.000000000000000000 ) ) ;
#138 = CARTESIAN_POINT ( 'NONE',  ( 0.000000000000000000, 0.000000000000000000, 6.000000000000000000 ) ) ;
#139 = VERTEX_POINT ( 'NONE', #112 ) ;
#140 = LOCAL_TIME ( 12, 48, 1.000000000000000000, #3 ) ;
#141 = LOCAL_TIME ( 12, 48, 1.000000000000000000, #107 ) ;
#142 = SPHERICAL_SURFACE ( 'NONE', #45, 75.00000000000000000 ) ;
#143 = AXIS2_PLACEMENT_3D ( 'NONE', #30, #123, #182 ) ;
#144 = DATE_AND_TIME ( #172, #83 ) ;
#145 = APPROVAL_DATE_TIME ( #50, #193 ) ;
#146 = APPROVAL_DATE_TIME ( #72, #147 ) ;
#147 = APPROVAL ( #133, 'UNSPECIFIED' ) ;
#148 = ORIENTED_EDGE ( 'NONE', *, *, #176, .T. ) ;
#149 = CARTESIAN_POINT ( 'NONE',  ( 1.040834085586084257E-14, 0.000000000000000000, 79.91691281432146354 ) ) ;
#150 = PERSON_AND_ORGANIZATION ( #11, #7 ) ;
#151 = APPROVAL_PERSON_ORGANIZATION ( #35, #193, #92 ) ;
#152 = DIRECTION ( 'NONE',  ( 0.000000000000000000, 0.000000000000000000, 1.000000000000000000 ) ) ;
#153 = CARTESIAN_POINT ( 'NONE',  ( -12.69999999999997620, 0.000000000000000000, 6.000000000000005329 ) ) ;
#154 = CYLINDRICAL_SURFACE ( 'NONE', #164, 12.69999999999999929 ) ;
#155 = PRODUCT_RELATED_PRODUCT_CATEGORY ( 'detail', '', ( #78 ) ) ;
#156 = FACE_OUTER_BOUND ( 'NONE', #88, .T. ) ;
#157 = AXIS2_PLACEMENT_3D ( 'NONE', #109, #152, #137 ) ;
#158 = MECHANICAL_CONTEXT ( 'NONE', #188, 'mechanical' ) ;
#159 = AXIS2_PLACEMENT_3D ( 'NONE', #138, #96, #24 ) ;
#160 = ORIENTED_EDGE ( 'NONE', *, *, #176, .F. ) ;
#161 = CARTESIAN_POINT ( 'NONE',  ( 12.69999999999999929, 1.555301434917138433E-15, 0.000000000000000000 ) ) ;
#162 = EDGE_CURVE ( 'NONE', #119, #106, #117, .T. ) ;
#163 = PLANE ( 'NONE',  #157 ) ;
#164 = AXIS2_PLACEMENT_3D ( 'NONE', #99, #85, #97 ) ;
#165 = DIRECTION ( 'NONE',  ( 0.000000000000000000, 0.000000000000000000, 1.000000000000000000 ) ) ;
#166 = APPROVAL_PERSON_ORGANIZATION ( #150, #147, #181 ) ;
#167 = DIRECTION ( 'NONE',  ( 0.000000000000000000, -1.000000000000000000, -0.000000000000000000 ) ) ;
#168 = EDGE_CURVE ( 'NONE', #106, #119, #22, .T. ) ;
#169 =( NAMED_UNIT ( * ) PLANE_ANGLE_UNIT ( ) SI_UNIT ( $, .RADIAN. ) );
#170 = DIRECTION ( 'NONE',  ( 1.000000000000000000, 0.000000000000000000, 0.000000000000000000 ) ) ;
#171 = CALENDAR_DATE ( 2021, 25, 2 ) ;
#172 = CALENDAR_DATE ( 2021, 25, 2 ) ;
#173 = VERTEX_POINT ( 'NONE', #1 ) ;
#174 = PERSON_AND_ORGANIZATION ( #11, #7 ) ;
#175 = EDGE_LOOP ( 'NONE', ( #122, #178, #39 ) ) ;
#176 = EDGE_CURVE ( 'NONE', #38, #173, #134, .T. ) ;
#177 = VECTOR ( 'NONE', #9, 1000.000000000000000 ) ;
#178 = ORIENTED_EDGE ( 'NONE', *, *, #162, .F. ) ;
#179 = SECURITY_CLASSIFICATION_LEVEL ( 'unclassified' ) ;
#180 = CARTESIAN_POINT ( 'NONE',  ( 1.040834085586084257E-14, 0.000000000000000000, 79.91691281432146354 ) ) ;
#181 = APPROVAL_ROLE ( '' ) ;
#182 = DIRECTION ( 'NONE',  ( 0.000000000000000000, 0.000000000000000000, 1.000000000000000000 ) ) ;
#183 = SPHERICAL_SURFACE ( 'NONE', #4, 75.00000000000000000 ) ;
#184 = ADVANCED_FACE ( 'NONE', ( #110 ), #142, .F. ) ;
#185 = DIRECTION ( 'NONE',  ( 1.000000000000000000, 0.000000000000000000, 0.000000000000000000 ) ) ;
#186 = DIRECTION ( 'NONE',  ( -0.000000000000000000, -0.000000000000000000, -1.000000000000000000 ) ) ;
#187 =( NAMED_UNIT ( * ) SI_UNIT ( $, .STERADIAN. ) SOLID_ANGLE_UNIT ( ) );
#188 = APPLICATION_CONTEXT ( 'configuration controlled 3d designs of mechanical parts and assemblies' ) ;
#189 = CARTESIAN_POINT ( 'NONE',  ( -12.69999999999999929, 0.000000000000000000, 6.000000000000000000 ) ) ;
#190 = CARTESIAN_POINT ( 'NONE',  ( 0.000000000000000000, 0.000000000000000000, 0.000000000000000000 ) ) ;
#191 = PERSON_AND_ORGANIZATION_ROLE ( 'creator' ) ;
#192 = APPROVAL_STATUS ( 'not_yet_approved' ) ;
#193 = APPROVAL ( #18, 'UNSPECIFIED' ) ;
#194 = CALENDAR_DATE ( 2021, 25, 2 ) ;
#195 = LINE ( 'NONE', #189, #201 ) ;
#196 = CALENDAR_DATE ( 2021, 25, 2 ) ;
#197 = AXIS2_PLACEMENT_3D ( 'NONE', #46, #186, #185 ) ;
#198 = PRODUCT_DEFINITION_SHAPE ( 'NONE', 'NONE',  #49 ) ;
#199 = CC_DESIGN_PERSON_AND_ORGANIZATION_ASSIGNMENT ( #174, #54, ( #130 ) ) ;
#200 = DIRECTION ( 'NONE',  ( -0.000000000000000000, -0.000000000000000000, -1.000000000000000000 ) ) ;
#201 = VECTOR ( 'NONE', #200, 1000.000000000000000 ) ;
ENDSEC;
END-ISO-10303-21;
