ISO-10303-21;
HEADER;
FILE_DESCRIPTION (( 'STEP AP203' ),
    '1' );
FILE_NAME ('010-0205E_N-BK7_PCV_window.STEP',
    '2021-02-25T11:12:38',
    ( '' ),
    ( '' ),
    'SwSTEP 2.0',
    'SolidWorks 2019',
    '' );
FILE_SCHEMA (( 'CONFIG_CONTROL_DESIGN' ));
ENDSEC;

DATA;
#1 = COORDINATED_UNIVERSAL_TIME_OFFSET ( 2, 0, .AHEAD. ) ;
#2 = ORIENTED_EDGE ( 'NONE', *, *, #31, .F. ) ;
#3 = COORDINATED_UNIVERSAL_TIME_OFFSET ( 2, 0, .AHEAD. ) ;
#4 = ORIENTED_EDGE ( 'NONE', *, *, #31, .T. ) ;
#5 = PERSON_AND_ORGANIZATION ( #146, #18 ) ;
#6 = EDGE_LOOP ( 'NONE', ( #125, #21, #55, #38 ) ) ;
#7 = CALENDAR_DATE ( 2021, 25, 2 ) ;
#8 = DIRECTION ( 'NONE',  ( 1.000000000000000000, 0.000000000000000000, 0.000000000000000000 ) ) ;
#9 = AXIS2_PLACEMENT_3D ( 'NONE', #168, #199, #44 ) ;
#10 = VERTEX_POINT ( 'NONE', #23 ) ;
#11 = AXIS2_PLACEMENT_3D ( 'NONE', #56, #37, #114 ) ;
#12 = DIRECTION ( 'NONE',  ( 1.000000000000000000, 0.000000000000000000, 0.000000000000000000 ) ) ;
#13 = CARTESIAN_POINT ( 'NONE',  ( 3.295974604355933479E-14, 0.000000000000000000, 255.6772116153174181 ) ) ;
#14 = SECURITY_CLASSIFICATION ( '', '', #140 ) ;
#15 = EDGE_CURVE ( 'NONE', #117, #113, #22, .T. ) ;
#16 = CIRCLE ( 'NONE', #105, 250.0000000000000000 ) ;
#17 = PRODUCT_DEFINITION_FORMATION_WITH_SPECIFIED_SOURCE ( 'ANY', '', #66, .NOT_KNOWN. ) ;
#18 = ORGANIZATION ( 'UNSPECIFIED', 'UNSPECIFIED', '' ) ;
#19 = CALENDAR_DATE ( 2021, 25, 2 ) ;
#20 = AXIS2_PLACEMENT_3D ( 'NONE', #131, #24, #8 ) ;
#21 = ORIENTED_EDGE ( 'NONE', *, *, #93, .T. ) ;
#22 = CIRCLE ( 'NONE', #11, 250.0000000000000000 ) ;
#23 = CARTESIAN_POINT ( 'NONE',  ( 12.69999999999999929, 1.555301434917138433E-15, 0.000000000000000000 ) ) ;
#24 = DIRECTION ( 'NONE',  ( 0.000000000000000000, 0.000000000000000000, 1.000000000000000000 ) ) ;
#25 = CARTESIAN_POINT ( 'NONE',  ( -12.69999999999999929, 0.000000000000000000, 6.000000000000000000 ) ) ;
#26 = AXIS2_PLACEMENT_3D ( 'NONE', #39, #86, #196 ) ;
#27 = DIRECTION ( 'NONE',  ( 1.000000000000000000, 0.000000000000000000, 0.000000000000000000 ) ) ;
#28 = MECHANICAL_CONTEXT ( 'NONE', #158, 'mechanical' ) ;
#29 = FACE_OUTER_BOUND ( 'NONE', #6, .T. ) ;
#30 = PERSON_AND_ORGANIZATION_ROLE ( 'classification_officer' ) ;
#31 = EDGE_CURVE ( 'NONE', #180, #117, #112, .T. ) ;
#32 = APPROVAL_STATUS ( 'not_yet_approved' ) ;
#33 = CIRCLE ( 'NONE', #153, 12.70000000000032969 ) ;
#34 = DATE_TIME_ROLE ( 'creation_date' ) ;
#35 = CC_DESIGN_PERSON_AND_ORGANIZATION_ASSIGNMENT ( #52, #94, ( #17 ) ) ;
#36 = CC_DESIGN_SECURITY_CLASSIFICATION ( #14, ( #17 ) ) ;
#37 = DIRECTION ( 'NONE',  ( 1.224646799147353207E-16, -1.000000000000000000, 0.000000000000000000 ) ) ;
#38 = ORIENTED_EDGE ( 'NONE', *, *, #149, .F. ) ;
#39 = CARTESIAN_POINT ( 'NONE',  ( 3.295974604355933479E-14, 0.000000000000000000, 6.000000000000005329 ) ) ;
#40 = CARTESIAN_POINT ( 'NONE',  ( -12.70000000000029594, 0.000000000000000000, 6.000000000000005329 ) ) ;
#41 =( LENGTH_UNIT ( ) NAMED_UNIT ( * ) SI_UNIT ( .MILLI., .METRE. ) );
#42 = VECTOR ( 'NONE', #183, 1000.000000000000000 ) ;
#43 = EDGE_LOOP ( 'NONE', ( #167, #2, #79 ) ) ;
#44 = DIRECTION ( 'NONE',  ( 1.000000000000000000, 0.000000000000000000, -0.000000000000000000 ) ) ;
#45 = CC_DESIGN_APPROVAL ( #185, ( #121 ) ) ;
#46 = CC_DESIGN_PERSON_AND_ORGANIZATION_ASSIGNMENT ( #49, #30, ( #14 ) ) ;
#47 = CC_DESIGN_APPROVAL ( #161, ( #14 ) ) ;
#48 = AXIS2_PLACEMENT_3D ( 'NONE', #152, #69, #133 ) ;
#49 = PERSON_AND_ORGANIZATION ( #146, #18 ) ;
#50 = ADVANCED_FACE ( 'NONE', ( #147 ), #195, .F. ) ;
#51 = DATE_TIME_ROLE ( 'classification_date' ) ;
#52 = PERSON_AND_ORGANIZATION ( #146, #18 ) ;
#53 = ORIENTED_EDGE ( 'NONE', *, *, #100, .F. ) ;
#54 = SPHERICAL_SURFACE ( 'NONE', #75, 250.0000000000000000 ) ;
#55 = ORIENTED_EDGE ( 'NONE', *, *, #111, .T. ) ;
#56 = CARTESIAN_POINT ( 'NONE',  ( 3.295974604355933479E-14, 0.000000000000000000, 255.6772116153174181 ) ) ;
#57 = DIRECTION ( 'NONE',  ( 0.000000000000000000, 1.000000000000000000, -0.000000000000000000 ) ) ;
#58 = CARTESIAN_POINT ( 'NONE',  ( 3.295974604355933479E-14, 0.000000000000000000, 255.6772116153174181 ) ) ;
#59 = ADVANCED_FACE ( 'NONE', ( #144 ), #54, .F. ) ;
#60 = DIRECTION ( 'NONE',  ( 1.000000000000000000, 0.000000000000000000, 0.000000000000000000 ) ) ;
#61 = APPROVAL_PERSON_ORGANIZATION ( #62, #137, #157 ) ;
#62 = PERSON_AND_ORGANIZATION ( #146, #18 ) ;
#63 = PERSON_AND_ORGANIZATION ( #146, #18 ) ;
#64 = DATE_AND_TIME ( #156, #141 ) ;
#65 = APPROVAL_ROLE ( '' ) ;
#66 = PRODUCT ( '010-0205E_N-BK7_PCV_window', '010-0205E_N-BK7_PCV_window', '', ( #28 ) ) ;
#67 = CARTESIAN_POINT ( 'NONE',  ( 3.295974604355933479E-14, 0.000000000000000000, 6.000000000000005329 ) ) ;
#68 = DIRECTION ( 'NONE',  ( -1.000000000000000000, 0.000000000000000000, 0.000000000000000000 ) ) ;
#69 = DIRECTION ( 'NONE',  ( -0.000000000000000000, -0.000000000000000000, -1.000000000000000000 ) ) ;
#70 = CARTESIAN_POINT ( 'NONE',  ( 0.000000000000000000, 0.000000000000000000, 6.000000000000000000 ) ) ;
#71 = CARTESIAN_POINT ( 'NONE',  ( 0.000000000000000000, 0.000000000000000000, 0.000000000000000000 ) ) ;
#72 = MANIFOLD_SOLID_BREP ( 'Cut-Revolve1', #91 ) ;
#73 = CIRCLE ( 'NONE', #20, 12.69999999999999929 ) ;
#74 = CC_DESIGN_PERSON_AND_ORGANIZATION_ASSIGNMENT ( #197, #122, ( #66 ) ) ;
#75 = AXIS2_PLACEMENT_3D ( 'NONE', #58, #84, #12 ) ;
#76 = DATE_AND_TIME ( #108, #130 ) ;
#77 = ORIENTED_EDGE ( 'NONE', *, *, #83, .F. ) ;
#78 = APPLICATION_PROTOCOL_DEFINITION ( 'international standard', 'config_control_design', 1994, #200 ) ;
#79 = ORIENTED_EDGE ( 'NONE', *, *, #83, .T. ) ;
#80 = ORIENTED_EDGE ( 'NONE', *, *, #100, .T. ) ;
#81 = CC_DESIGN_PERSON_AND_ORGANIZATION_ASSIGNMENT ( #95, #138, ( #17 ) ) ;
#82 = ORIENTED_EDGE ( 'NONE', *, *, #111, .F. ) ;
#83 = EDGE_CURVE ( 'NONE', #180, #113, #16, .T. ) ;
#84 = DIRECTION ( 'NONE',  ( 0.000000000000000000, -1.000000000000000000, -0.000000000000000000 ) ) ;
#85 = DIRECTION ( 'NONE',  ( 1.000000000000000000, 0.000000000000000000, 0.000000000000000000 ) ) ;
#86 = DIRECTION ( 'NONE',  ( -0.000000000000000000, -0.000000000000000000, -1.000000000000000000 ) ) ;
#87 = AXIS2_PLACEMENT_3D ( 'NONE', #71, #119, #107 ) ;
#88 = CARTESIAN_POINT ( 'NONE',  ( 4.826783103290125356E-14, 0.000000000000000000, 5.677211615317423465 ) ) ;
#89 = FACE_OUTER_BOUND ( 'NONE', #182, .T. ) ;
#90 =( NAMED_UNIT ( * ) SI_UNIT ( $, .STERADIAN. ) SOLID_ANGLE_UNIT ( ) );
#91 = CLOSED_SHELL ( 'NONE', ( #50, #188, #155, #170, #59 ) ) ;
#92 = EDGE_LOOP ( 'NONE', ( #163, #175, #77 ) ) ;
#93 = EDGE_CURVE ( 'NONE', #180, #10, #118, .T. ) ;
#94 = PERSON_AND_ORGANIZATION_ROLE ( 'design_supplier' ) ;
#95 = PERSON_AND_ORGANIZATION ( #146, #18 ) ;
#96 = APPROVAL_DATE_TIME ( #76, #185 ) ;
#97 = VECTOR ( 'NONE', #169, 1000.000000000000000 ) ;
#98 = APPROVAL_ROLE ( '' ) ;
#99 = ORIENTED_EDGE ( 'NONE', *, *, #149, .T. ) ;
#100 = EDGE_CURVE ( 'NONE', #127, #10, #136, .T. ) ;
#101 = DIRECTION ( 'NONE',  ( 0.000000000000000000, 0.000000000000000000, 1.000000000000000000 ) ) ;
#102 = FACE_OUTER_BOUND ( 'NONE', #145, .T. ) ;
#103 = LINE ( 'NONE', #25, #97 ) ;
#104 = CC_DESIGN_DATE_AND_TIME_ASSIGNMENT ( #159, #34, ( #121 ) ) ;
#105 = AXIS2_PLACEMENT_3D ( 'NONE', #116, #57, #101 ) ;
#106 = CARTESIAN_POINT ( 'NONE',  ( 12.70000000000036344, 1.555301434917183003E-15, 6.000000000000005329 ) ) ;
#107 = DIRECTION ( 'NONE',  ( 1.000000000000000000, 0.000000000000000000, 0.000000000000000000 ) ) ;
#108 = CALENDAR_DATE ( 2021, 25, 2 ) ;
#109 = PERSON_AND_ORGANIZATION_ROLE ( 'creator' ) ;
#110 = APPROVAL_STATUS ( 'not_yet_approved' ) ;
#111 = EDGE_CURVE ( 'NONE', #10, #127, #73, .T. ) ;
#112 = CIRCLE ( 'NONE', #26, 12.70000000000032969 ) ;
#113 = VERTEX_POINT ( 'NONE', #88 ) ;
#114 = DIRECTION ( 'NONE',  ( 1.000000000000000000, 1.224646799147353207E-16, 0.000000000000000000 ) ) ;
#115 = ORIENTED_EDGE ( 'NONE', *, *, #93, .F. ) ;
#116 = CARTESIAN_POINT ( 'NONE',  ( 3.295974604355933479E-14, 0.000000000000000000, 255.6772116153174181 ) ) ;
#117 = VERTEX_POINT ( 'NONE', #40 ) ;
#118 = LINE ( 'NONE', #166, #42 ) ;
#119 = DIRECTION ( 'NONE',  ( 0.000000000000000000, 0.000000000000000000, 1.000000000000000000 ) ) ;
#120 = DIRECTION ( 'NONE',  ( -0.000000000000000000, -0.000000000000000000, -1.000000000000000000 ) ) ;
#121 = PRODUCT_DEFINITION ( 'UNKNOWN', '', #17, #165 ) ;
#122 = PERSON_AND_ORGANIZATION_ROLE ( 'design_owner' ) ;
#123 = LOCAL_TIME ( 13, 12, 38.00000000000000000, #1 ) ;
#124 = APPROVAL_PERSON_ORGANIZATION ( #176, #161, #65 ) ;
#125 = ORIENTED_EDGE ( 'NONE', *, *, #189, .T. ) ;
#126 = APPROVAL_STATUS ( 'not_yet_approved' ) ;
#127 = VERTEX_POINT ( 'NONE', #184 ) ;
#128 = CALENDAR_DATE ( 2021, 25, 2 ) ;
#129 = AXIS2_PLACEMENT_3D ( 'NONE', #13, #172, #85 ) ;
#130 = LOCAL_TIME ( 13, 12, 38.00000000000000000, #173 ) ;
#131 = CARTESIAN_POINT ( 'NONE',  ( 0.000000000000000000, 0.000000000000000000, 0.000000000000000000 ) ) ;
#132 = CYLINDRICAL_SURFACE ( 'NONE', #48, 12.69999999999999929 ) ;
#133 = DIRECTION ( 'NONE',  ( -1.000000000000000000, 0.000000000000000000, 0.000000000000000000 ) ) ;
#134 = PLANE ( 'NONE',  #9 ) ;
#135 = AXIS2_PLACEMENT_3D ( 'NONE', #70, #120, #68 ) ;
#136 = CIRCLE ( 'NONE', #164, 12.69999999999999929 ) ;
#137 = APPROVAL ( #126, 'UNSPECIFIED' ) ;
#138 = PERSON_AND_ORGANIZATION_ROLE ( 'creator' ) ;
#139 = COORDINATED_UNIVERSAL_TIME_OFFSET ( 2, 0, .AHEAD. ) ;
#140 = SECURITY_CLASSIFICATION_LEVEL ( 'unclassified' ) ;
#141 = LOCAL_TIME ( 13, 12, 38.00000000000000000, #177 ) ;
#142 = CC_DESIGN_DATE_AND_TIME_ASSIGNMENT ( #191, #51, ( #14 ) ) ;
#143 = CARTESIAN_POINT ( 'NONE',  ( 0.000000000000000000, 0.000000000000000000, 0.000000000000000000 ) ) ;
#144 = FACE_OUTER_BOUND ( 'NONE', #43, .T. ) ;
#145 = EDGE_LOOP ( 'NONE', ( #53, #82 ) ) ;
#146 = PERSON ( 'UNSPECIFIED', 'UNSPECIFIED', 'UNSPECIFIED', ('UNSPECIFIED'), ('UNSPECIFIED'), ('UNSPECIFIED') ) ;
#147 = FACE_OUTER_BOUND ( 'NONE', #92, .T. ) ;
#148 = LOCAL_TIME ( 13, 12, 38.00000000000000000, #139 ) ;
#149 = EDGE_CURVE ( 'NONE', #117, #127, #103, .T. ) ;
#150 = CYLINDRICAL_SURFACE ( 'NONE', #135, 12.69999999999999929 ) ;
#151 = DIRECTION ( 'NONE',  ( -0.000000000000000000, -0.000000000000000000, -1.000000000000000000 ) ) ;
#152 = CARTESIAN_POINT ( 'NONE',  ( 0.000000000000000000, 0.000000000000000000, 6.000000000000000000 ) ) ;
#153 = AXIS2_PLACEMENT_3D ( 'NONE', #67, #151, #60 ) ;
#154 = LOCAL_TIME ( 13, 12, 38.00000000000000000, #3 ) ;
#155 = ADVANCED_FACE ( 'NONE', ( #89 ), #150, .T. ) ;
#156 = CALENDAR_DATE ( 2021, 25, 2 ) ;
#157 = APPROVAL_ROLE ( '' ) ;
#158 = APPLICATION_CONTEXT ( 'configuration controlled 3d designs of mechanical parts and assemblies' ) ;
#159 = DATE_AND_TIME ( #7, #148 ) ;
#160 = SHAPE_DEFINITION_REPRESENTATION ( #178, #187 ) ;
#161 = APPROVAL ( #110, 'UNSPECIFIED' ) ;
#162 = CC_DESIGN_APPROVAL ( #137, ( #17 ) ) ;
#163 = ORIENTED_EDGE ( 'NONE', *, *, #189, .F. ) ;
#164 = AXIS2_PLACEMENT_3D ( 'NONE', #143, #181, #27 ) ;
#165 = DESIGN_CONTEXT ( 'detailed design', #200, 'design' ) ;
#166 = CARTESIAN_POINT ( 'NONE',  ( 12.69999999999999929, 1.555301434917138433E-15, 6.000000000000000000 ) ) ;
#167 = ORIENTED_EDGE ( 'NONE', *, *, #15, .F. ) ;
#168 = CARTESIAN_POINT ( 'NONE',  ( 0.000000000000000000, 0.000000000000000000, 0.000000000000000000 ) ) ;
#169 = DIRECTION ( 'NONE',  ( -0.000000000000000000, -0.000000000000000000, -1.000000000000000000 ) ) ;
#170 = ADVANCED_FACE ( 'NONE', ( #102 ), #134, .F. ) ;
#171 =( NAMED_UNIT ( * ) PLANE_ANGLE_UNIT ( ) SI_UNIT ( $, .RADIAN. ) );
#172 = DIRECTION ( 'NONE',  ( 0.000000000000000000, -1.000000000000000000, -0.000000000000000000 ) ) ;
#173 = COORDINATED_UNIVERSAL_TIME_OFFSET ( 2, 0, .AHEAD. ) ;
#174 = APPROVAL_DATE_TIME ( #64, #161 ) ;
#175 = ORIENTED_EDGE ( 'NONE', *, *, #15, .T. ) ;
#176 = PERSON_AND_ORGANIZATION ( #146, #18 ) ;
#177 = COORDINATED_UNIVERSAL_TIME_OFFSET ( 2, 0, .AHEAD. ) ;
#178 = PRODUCT_DEFINITION_SHAPE ( 'NONE', 'NONE',  #121 ) ;
#179 =( GEOMETRIC_REPRESENTATION_CONTEXT ( 3 ) GLOBAL_UNCERTAINTY_ASSIGNED_CONTEXT ( ( #194 ) ) GLOBAL_UNIT_ASSIGNED_CONTEXT ( ( #41, #171, #90 ) ) REPRESENTATION_CONTEXT ( 'NONE', 'WORKASPACE' ) );
#180 = VERTEX_POINT ( 'NONE', #106 ) ;
#181 = DIRECTION ( 'NONE',  ( 0.000000000000000000, 0.000000000000000000, 1.000000000000000000 ) ) ;
#182 = EDGE_LOOP ( 'NONE', ( #115, #4, #99, #80 ) ) ;
#183 = DIRECTION ( 'NONE',  ( -0.000000000000000000, -0.000000000000000000, -1.000000000000000000 ) ) ;
#184 = CARTESIAN_POINT ( 'NONE',  ( -12.69999999999999929, 0.000000000000000000, 0.000000000000000000 ) ) ;
#185 = APPROVAL ( #32, 'UNSPECIFIED' ) ;
#186 = APPLICATION_PROTOCOL_DEFINITION ( 'international standard', 'config_control_design', 1994, #158 ) ;
#187 = ADVANCED_BREP_SHAPE_REPRESENTATION ( '010-0205E_N-BK7_PCV_window', ( #72, #87 ), #179 ) ;
#188 = ADVANCED_FACE ( 'NONE', ( #29 ), #132, .T. ) ;
#189 = EDGE_CURVE ( 'NONE', #117, #180, #33, .T. ) ;
#190 = DATE_AND_TIME ( #128, #154 ) ;
#191 = DATE_AND_TIME ( #19, #123 ) ;
#192 = APPROVAL_DATE_TIME ( #190, #137 ) ;
#193 = PRODUCT_RELATED_PRODUCT_CATEGORY ( 'detail', '', ( #66 ) ) ;
#194 = UNCERTAINTY_MEASURE_WITH_UNIT (LENGTH_MEASURE( 1.000000000000000082E-05 ), #41, 'distance_accuracy_value', 'NONE');
#195 = SPHERICAL_SURFACE ( 'NONE', #129, 250.0000000000000000 ) ;
#196 = DIRECTION ( 'NONE',  ( 1.000000000000000000, 0.000000000000000000, 0.000000000000000000 ) ) ;
#197 = PERSON_AND_ORGANIZATION ( #146, #18 ) ;
#198 = CC_DESIGN_PERSON_AND_ORGANIZATION_ASSIGNMENT ( #5, #109, ( #121 ) ) ;
#199 = DIRECTION ( 'NONE',  ( 0.000000000000000000, 0.000000000000000000, 1.000000000000000000 ) ) ;
#200 = APPLICATION_CONTEXT ( 'configuration controlled 3d designs of mechanical parts and assemblies' ) ;
#201 = APPROVAL_PERSON_ORGANIZATION ( #63, #185, #98 ) ;
ENDSEC;
END-ISO-10303-21;
