ISO-10303-21;
HEADER;
FILE_DESCRIPTION (( 'STEP AP203' ),
    '1' );
FILE_NAME ('010-0204E_N-BK7_PCV_window.STEP',
    '2021-02-25T11:11:05',
    ( '' ),
    ( '' ),
    'SwSTEP 2.0',
    'SolidWorks 2019',
    '' );
FILE_SCHEMA (( 'CONFIG_CONTROL_DESIGN' ));
ENDSEC;

DATA;
#1 = DIRECTION ( 'NONE',  ( -1.000000000000000000, 0.000000000000000000, 0.000000000000000000 ) ) ;
#2 = APPLICATION_PROTOCOL_DEFINITION ( 'international standard', 'config_control_design', 1994, #45 ) ;
#3 = CARTESIAN_POINT ( 'NONE',  ( -12.69999999999999929, 0.000000000000000000, 0.000000000000000000 ) ) ;
#4 = ADVANCED_FACE ( 'NONE', ( #147 ), #123, .F. ) ;
#5 = CC_DESIGN_PERSON_AND_ORGANIZATION_ASSIGNMENT ( #172, #200, ( #35 ) ) ;
#6 = DATE_AND_TIME ( #160, #22 ) ;
#7 = APPROVAL_DATE_TIME ( #6, #173 ) ;
#8 = EDGE_LOOP ( 'NONE', ( #128, #87 ) ) ;
#9 = ORIENTED_EDGE ( 'NONE', *, *, #175, .F. ) ;
#10 = AXIS2_PLACEMENT_3D ( 'NONE', #169, #20, #79 ) ;
#11 = ORIENTED_EDGE ( 'NONE', *, *, #175, .T. ) ;
#12 = APPROVAL_DATE_TIME ( #148, #67 ) ;
#13 = DIRECTION ( 'NONE',  ( -0.000000000000000000, -0.000000000000000000, -1.000000000000000000 ) ) ;
#14 = DIRECTION ( 'NONE',  ( 0.000000000000000000, 0.000000000000000000, 1.000000000000000000 ) ) ;
#15 = DIRECTION ( 'NONE',  ( -0.000000000000000000, -0.000000000000000000, -1.000000000000000000 ) ) ;
#16 = DIRECTION ( 'NONE',  ( 0.000000000000000000, 0.000000000000000000, 1.000000000000000000 ) ) ;
#17 = DIRECTION ( 'NONE',  ( 1.000000000000000000, 0.000000000000000000, 0.000000000000000000 ) ) ;
#18 = CC_DESIGN_PERSON_AND_ORGANIZATION_ASSIGNMENT ( #101, #85, ( #190 ) ) ;
#19 = COORDINATED_UNIVERSAL_TIME_OFFSET ( 2, 0, .AHEAD. ) ;
#20 = DIRECTION ( 'NONE',  ( 0.000000000000000000, -1.000000000000000000, -0.000000000000000000 ) ) ;
#21 = CLOSED_SHELL ( 'NONE', ( #4, #114, #189, #194, #125 ) ) ;
#22 = LOCAL_TIME ( 13, 11, 5.000000000000000000, #140 ) ;
#23 = DATE_TIME_ROLE ( 'classification_date' ) ;
#24 = SECURITY_CLASSIFICATION_LEVEL ( 'unclassified' ) ;
#25 = ORIENTED_EDGE ( 'NONE', *, *, #197, .T. ) ;
#26 = ORIENTED_EDGE ( 'NONE', *, *, #146, .F. ) ;
#27 = MANIFOLD_SOLID_BREP ( 'Cut-Revolve1', #21 ) ;
#28 = CIRCLE ( 'NONE', #38, 12.70000000000005613 ) ;
#29 = VERTEX_POINT ( 'NONE', #131 ) ;
#30 = CALENDAR_DATE ( 2021, 25, 2 ) ;
#31 = DIRECTION ( 'NONE',  ( -0.000000000000000000, -0.000000000000000000, -1.000000000000000000 ) ) ;
#32 = CARTESIAN_POINT ( 'NONE',  ( 2.602085213965210642E-14, 0.000000000000000000, 6.000000000000005329 ) ) ;
#33 = COORDINATED_UNIVERSAL_TIME_OFFSET ( 2, 0, .AHEAD. ) ;
#34 = CYLINDRICAL_SURFACE ( 'NONE', #43, 12.69999999999999929 ) ;
#35 = PRODUCT ( '010-0204E_N-BK7_PCV_window', '010-0204E_N-BK7_PCV_window', '', ( #105 ) ) ;
#36 = CARTESIAN_POINT ( 'NONE',  ( 0.000000000000000000, 0.000000000000000000, 6.000000000000000000 ) ) ;
#37 = APPROVAL_PERSON_ORGANIZATION ( #120, #67, #109 ) ;
#38 = AXIS2_PLACEMENT_3D ( 'NONE', #66, #137, #166 ) ;
#39 = PERSON_AND_ORGANIZATION ( #100, #162 ) ;
#40 = ORIENTED_EDGE ( 'NONE', *, *, #89, .F. ) ;
#41 = ORIENTED_EDGE ( 'NONE', *, *, #113, .T. ) ;
#42 = EDGE_CURVE ( 'NONE', #57, #29, #80, .T. ) ;
#43 = AXIS2_PLACEMENT_3D ( 'NONE', #133, #61, #201 ) ;
#44 = PERSON_AND_ORGANIZATION_ROLE ( 'creator' ) ;
#45 = APPLICATION_CONTEXT ( 'configuration controlled 3d designs of mechanical parts and assemblies' ) ;
#46 = FACE_OUTER_BOUND ( 'NONE', #198, .T. ) ;
#47 = DIRECTION ( 'NONE',  ( 1.000000000000000000, 0.000000000000000000, 0.000000000000000000 ) ) ;
#48 = CARTESIAN_POINT ( 'NONE',  ( -12.70000000000003126, 0.000000000000000000, 6.000000000000005329 ) ) ;
#49 = AXIS2_PLACEMENT_3D ( 'NONE', #110, #98, #17 ) ;
#50 = CARTESIAN_POINT ( 'NONE',  ( 0.000000000000000000, 0.000000000000000000, 0.000000000000000000 ) ) ;
#51 = PRODUCT_DEFINITION ( 'UNKNOWN', '', #183, #188 ) ;
#52 = LOCAL_TIME ( 13, 11, 5.000000000000000000, #95 ) ;
#53 = CIRCLE ( 'NONE', #64, 200.0000000000000000 ) ;
#54 = PERSON_AND_ORGANIZATION ( #100, #162 ) ;
#55 = SHAPE_DEFINITION_REPRESENTATION ( #185, #177 ) ;
#56 = PRODUCT_RELATED_PRODUCT_CATEGORY ( 'detail', '', ( #35 ) ) ;
#57 = VERTEX_POINT ( 'NONE', #3 ) ;
#58 =( LENGTH_UNIT ( ) NAMED_UNIT ( * ) SI_UNIT ( .MILLI., .METRE. ) );
#59 = DIRECTION ( 'NONE',  ( 0.000000000000000000, 0.000000000000000000, 1.000000000000000000 ) ) ;
#60 = APPROVAL_ROLE ( '' ) ;
#61 = DIRECTION ( 'NONE',  ( -0.000000000000000000, -0.000000000000000000, -1.000000000000000000 ) ) ;
#62 =( GEOMETRIC_REPRESENTATION_CONTEXT ( 3 ) GLOBAL_UNCERTAINTY_ASSIGNED_CONTEXT ( ( #124 ) ) GLOBAL_UNIT_ASSIGNED_CONTEXT ( ( #58, #116, #130 ) ) REPRESENTATION_CONTEXT ( 'NONE', 'WORKASPACE' ) );
#63 = DATE_AND_TIME ( #30, #71 ) ;
#64 = AXIS2_PLACEMENT_3D ( 'NONE', #117, #74, #59 ) ;
#65 = DIRECTION ( 'NONE',  ( 0.000000000000000000, 0.000000000000000000, 1.000000000000000000 ) ) ;
#66 = CARTESIAN_POINT ( 'NONE',  ( 2.602085213965210642E-14, 0.000000000000000000, 6.000000000000005329 ) ) ;
#67 = APPROVAL ( #168, 'UNSPECIFIED' ) ;
#68 = APPROVAL_STATUS ( 'not_yet_approved' ) ;
#69 = CC_DESIGN_APPROVAL ( #173, ( #190 ) ) ;
#70 = APPLICATION_CONTEXT ( 'configuration controlled 3d designs of mechanical parts and assemblies' ) ;
#71 = LOCAL_TIME ( 13, 11, 5.000000000000000000, #19 ) ;
#72 = AXIS2_PLACEMENT_3D ( 'NONE', #36, #155, #1 ) ;
#73 = ORIENTED_EDGE ( 'NONE', *, *, #113, .F. ) ;
#74 = DIRECTION ( 'NONE',  ( 0.000000000000000000, 1.000000000000000000, -0.000000000000000000 ) ) ;
#75 = PERSON_AND_ORGANIZATION ( #100, #162 ) ;
#76 = FACE_OUTER_BOUND ( 'NONE', #196, .T. ) ;
#77 = CARTESIAN_POINT ( 'NONE',  ( -12.69999999999999929, 0.000000000000000000, 6.000000000000000000 ) ) ;
#78 = CC_DESIGN_APPROVAL ( #67, ( #183 ) ) ;
#79 = DIRECTION ( 'NONE',  ( 1.000000000000000000, 0.000000000000000000, 0.000000000000000000 ) ) ;
#80 = CIRCLE ( 'NONE', #49, 12.69999999999999929 ) ;
#81 = CC_DESIGN_DATE_AND_TIME_ASSIGNMENT ( #84, #23, ( #190 ) ) ;
#82 = CC_DESIGN_PERSON_AND_ORGANIZATION_ASSIGNMENT ( #165, #44, ( #51 ) ) ;
#83 = LOCAL_TIME ( 13, 11, 5.000000000000000000, #141 ) ;
#84 = DATE_AND_TIME ( #193, #83 ) ;
#85 = PERSON_AND_ORGANIZATION_ROLE ( 'classification_officer' ) ;
#86 = ORIENTED_EDGE ( 'NONE', *, *, #156, .T. ) ;
#87 = ORIENTED_EDGE ( 'NONE', *, *, #197, .F. ) ;
#88 = LOCAL_TIME ( 13, 11, 5.000000000000000000, #33 ) ;
#89 = EDGE_CURVE ( 'NONE', #145, #57, #115, .T. ) ;
#90 = CIRCLE ( 'NONE', #104, 12.69999999999999929 ) ;
#91 = ORIENTED_EDGE ( 'NONE', *, *, #89, .T. ) ;
#92 = CALENDAR_DATE ( 2021, 25, 2 ) ;
#93 = LINE ( 'NONE', #149, #138 ) ;
#94 = SPHERICAL_SURFACE ( 'NONE', #10, 200.0000000000000000 ) ;
#95 = COORDINATED_UNIVERSAL_TIME_OFFSET ( 2, 0, .AHEAD. ) ;
#96 = PLANE ( 'NONE',  #111 ) ;
#97 = DATE_AND_TIME ( #107, #52 ) ;
#98 = DIRECTION ( 'NONE',  ( 0.000000000000000000, 0.000000000000000000, 1.000000000000000000 ) ) ;
#99 = CC_DESIGN_PERSON_AND_ORGANIZATION_ASSIGNMENT ( #54, #174, ( #183 ) ) ;
#100 = PERSON ( 'UNSPECIFIED', 'UNSPECIFIED', 'UNSPECIFIED', ('UNSPECIFIED'), ('UNSPECIFIED'), ('UNSPECIFIED') ) ;
#101 = PERSON_AND_ORGANIZATION ( #100, #162 ) ;
#102 = ORIENTED_EDGE ( 'NONE', *, *, #156, .F. ) ;
#103 = EDGE_LOOP ( 'NONE', ( #142, #41, #9 ) ) ;
#104 = AXIS2_PLACEMENT_3D ( 'NONE', #50, #65, #180 ) ;
#105 = MECHANICAL_CONTEXT ( 'NONE', #45, 'mechanical' ) ;
#106 = CARTESIAN_POINT ( 'NONE',  ( 3.826732013112563385E-14, 0.000000000000000000, 5.596367702420890211 ) ) ;
#107 = CALENDAR_DATE ( 2021, 25, 2 ) ;
#108 = FACE_OUTER_BOUND ( 'NONE', #8, .T. ) ;
#109 = APPROVAL_ROLE ( '' ) ;
#110 = CARTESIAN_POINT ( 'NONE',  ( 0.000000000000000000, 0.000000000000000000, 0.000000000000000000 ) ) ;
#111 = AXIS2_PLACEMENT_3D ( 'NONE', #136, #16, #182 ) ;
#112 = APPROVAL ( #132, 'UNSPECIFIED' ) ;
#113 = EDGE_CURVE ( 'NONE', #145, #161, #159, .T. ) ;
#114 = ADVANCED_FACE ( 'NONE', ( #46 ), #171, .T. ) ;
#115 = LINE ( 'NONE', #77, #122 ) ;
#116 =( NAMED_UNIT ( * ) PLANE_ANGLE_UNIT ( ) SI_UNIT ( $, .RADIAN. ) );
#117 = CARTESIAN_POINT ( 'NONE',  ( 2.602085213965210642E-14, 0.000000000000000000, 205.5963677024209062 ) ) ;
#118 = APPROVAL_PERSON_ORGANIZATION ( #75, #112, #60 ) ;
#119 = CC_DESIGN_PERSON_AND_ORGANIZATION_ASSIGNMENT ( #170, #191, ( #183 ) ) ;
#120 = PERSON_AND_ORGANIZATION ( #100, #162 ) ;
#121 = DIRECTION ( 'NONE',  ( 1.000000000000000000, 0.000000000000000000, 0.000000000000000000 ) ) ;
#122 = VECTOR ( 'NONE', #15, 1000.000000000000000 ) ;
#123 = SPHERICAL_SURFACE ( 'NONE', #192, 200.0000000000000000 ) ;
#124 = UNCERTAINTY_MEASURE_WITH_UNIT (LENGTH_MEASURE( 1.000000000000000082E-05 ), #58, 'distance_accuracy_value', 'NONE');
#125 = ADVANCED_FACE ( 'NONE', ( #184 ), #94, .F. ) ;
#126 = CIRCLE ( 'NONE', #144, 12.70000000000005613 ) ;
#127 = APPROVAL_ROLE ( '' ) ;
#128 = ORIENTED_EDGE ( 'NONE', *, *, #42, .F. ) ;
#129 = EDGE_LOOP ( 'NONE', ( #73, #26, #11 ) ) ;
#130 =( NAMED_UNIT ( * ) SI_UNIT ( $, .STERADIAN. ) SOLID_ANGLE_UNIT ( ) );
#131 = CARTESIAN_POINT ( 'NONE',  ( 12.69999999999999929, 1.555301434917138433E-15, 0.000000000000000000 ) ) ;
#132 = APPROVAL_STATUS ( 'not_yet_approved' ) ;
#133 = CARTESIAN_POINT ( 'NONE',  ( 0.000000000000000000, 0.000000000000000000, 6.000000000000000000 ) ) ;
#134 = CARTESIAN_POINT ( 'NONE',  ( 2.602085213965210642E-14, 0.000000000000000000, 205.5963677024209062 ) ) ;
#135 = AXIS2_PLACEMENT_3D ( 'NONE', #152, #14, #47 ) ;
#136 = CARTESIAN_POINT ( 'NONE',  ( 0.000000000000000000, 0.000000000000000000, 0.000000000000000000 ) ) ;
#137 = DIRECTION ( 'NONE',  ( -0.000000000000000000, -0.000000000000000000, -1.000000000000000000 ) ) ;
#138 = VECTOR ( 'NONE', #13, 1000.000000000000000 ) ;
#139 = EDGE_CURVE ( 'NONE', #145, #178, #28, .T. ) ;
#140 = COORDINATED_UNIVERSAL_TIME_OFFSET ( 2, 0, .AHEAD. ) ;
#141 = COORDINATED_UNIVERSAL_TIME_OFFSET ( 2, 0, .AHEAD. ) ;
#142 = ORIENTED_EDGE ( 'NONE', *, *, #139, .F. ) ;
#143 = ORIENTED_EDGE ( 'NONE', *, *, #146, .T. ) ;
#144 = AXIS2_PLACEMENT_3D ( 'NONE', #32, #31, #121 ) ;
#145 = VERTEX_POINT ( 'NONE', #48 ) ;
#146 = EDGE_CURVE ( 'NONE', #178, #145, #126, .T. ) ;
#147 = FACE_OUTER_BOUND ( 'NONE', #103, .T. ) ;
#148 = DATE_AND_TIME ( #92, #88 ) ;
#149 = CARTESIAN_POINT ( 'NONE',  ( 12.69999999999999929, 1.555301434917138433E-15, 6.000000000000000000 ) ) ;
#150 = APPLICATION_PROTOCOL_DEFINITION ( 'international standard', 'config_control_design', 1994, #70 ) ;
#151 = CARTESIAN_POINT ( 'NONE',  ( 12.70000000000008455, 1.555301434917148885E-15, 6.000000000000005329 ) ) ;
#152 = CARTESIAN_POINT ( 'NONE',  ( 0.000000000000000000, 0.000000000000000000, 0.000000000000000000 ) ) ;
#153 = DIRECTION ( 'NONE',  ( 1.000000000000000000, 0.000000000000000000, 0.000000000000000000 ) ) ;
#154 = APPROVAL_DATE_TIME ( #97, #112 ) ;
#155 = DIRECTION ( 'NONE',  ( -0.000000000000000000, -0.000000000000000000, -1.000000000000000000 ) ) ;
#156 = EDGE_CURVE ( 'NONE', #178, #29, #93, .T. ) ;
#157 = CC_DESIGN_APPROVAL ( #112, ( #51 ) ) ;
#158 = CC_DESIGN_DATE_AND_TIME_ASSIGNMENT ( #63, #186, ( #51 ) ) ;
#159 = CIRCLE ( 'NONE', #163, 200.0000000000000000 ) ;
#160 = CALENDAR_DATE ( 2021, 25, 2 ) ;
#161 = VERTEX_POINT ( 'NONE', #106 ) ;
#162 = ORGANIZATION ( 'UNSPECIFIED', 'UNSPECIFIED', '' ) ;
#163 = AXIS2_PLACEMENT_3D ( 'NONE', #134, #181, #199 ) ;
#164 = ORIENTED_EDGE ( 'NONE', *, *, #42, .T. ) ;
#165 = PERSON_AND_ORGANIZATION ( #100, #162 ) ;
#166 = DIRECTION ( 'NONE',  ( 1.000000000000000000, 0.000000000000000000, 0.000000000000000000 ) ) ;
#167 = DIRECTION ( 'NONE',  ( 0.000000000000000000, -1.000000000000000000, -0.000000000000000000 ) ) ;
#168 = APPROVAL_STATUS ( 'not_yet_approved' ) ;
#169 = CARTESIAN_POINT ( 'NONE',  ( 2.602085213965210642E-14, 0.000000000000000000, 205.5963677024209062 ) ) ;
#170 = PERSON_AND_ORGANIZATION ( #100, #162 ) ;
#171 = CYLINDRICAL_SURFACE ( 'NONE', #72, 12.69999999999999929 ) ;
#172 = PERSON_AND_ORGANIZATION ( #100, #162 ) ;
#173 = APPROVAL ( #68, 'UNSPECIFIED' ) ;
#174 = PERSON_AND_ORGANIZATION_ROLE ( 'design_supplier' ) ;
#175 = EDGE_CURVE ( 'NONE', #178, #161, #53, .T. ) ;
#176 = ORIENTED_EDGE ( 'NONE', *, *, #139, .T. ) ;
#177 = ADVANCED_BREP_SHAPE_REPRESENTATION ( '010-0204E_N-BK7_PCV_window', ( #27, #135 ), #62 ) ;
#178 = VERTEX_POINT ( 'NONE', #151 ) ;
#179 = CC_DESIGN_SECURITY_CLASSIFICATION ( #190, ( #183 ) ) ;
#180 = DIRECTION ( 'NONE',  ( 1.000000000000000000, 0.000000000000000000, 0.000000000000000000 ) ) ;
#181 = DIRECTION ( 'NONE',  ( 1.224646799147353207E-16, -1.000000000000000000, 0.000000000000000000 ) ) ;
#182 = DIRECTION ( 'NONE',  ( 1.000000000000000000, 0.000000000000000000, -0.000000000000000000 ) ) ;
#183 = PRODUCT_DEFINITION_FORMATION_WITH_SPECIFIED_SOURCE ( 'ANY', '', #35, .NOT_KNOWN. ) ;
#184 = FACE_OUTER_BOUND ( 'NONE', #129, .T. ) ;
#185 = PRODUCT_DEFINITION_SHAPE ( 'NONE', 'NONE',  #51 ) ;
#186 = DATE_TIME_ROLE ( 'creation_date' ) ;
#187 = CARTESIAN_POINT ( 'NONE',  ( 2.602085213965210642E-14, 0.000000000000000000, 205.5963677024209062 ) ) ;
#188 = DESIGN_CONTEXT ( 'detailed design', #70, 'design' ) ;
#189 = ADVANCED_FACE ( 'NONE', ( #76 ), #34, .T. ) ;
#190 = SECURITY_CLASSIFICATION ( '', '', #24 ) ;
#191 = PERSON_AND_ORGANIZATION_ROLE ( 'creator' ) ;
#192 = AXIS2_PLACEMENT_3D ( 'NONE', #187, #167, #153 ) ;
#193 = CALENDAR_DATE ( 2021, 25, 2 ) ;
#194 = ADVANCED_FACE ( 'NONE', ( #108 ), #96, .F. ) ;
#195 = APPROVAL_PERSON_ORGANIZATION ( #39, #173, #127 ) ;
#196 = EDGE_LOOP ( 'NONE', ( #102, #143, #91, #164 ) ) ;
#197 = EDGE_CURVE ( 'NONE', #29, #57, #90, .T. ) ;
#198 = EDGE_LOOP ( 'NONE', ( #176, #86, #25, #40 ) ) ;
#199 = DIRECTION ( 'NONE',  ( 1.000000000000000000, 1.224646799147353207E-16, 0.000000000000000000 ) ) ;
#200 = PERSON_AND_ORGANIZATION_ROLE ( 'design_owner' ) ;
#201 = DIRECTION ( 'NONE',  ( -1.000000000000000000, 0.000000000000000000, 0.000000000000000000 ) ) ;
ENDSEC;
END-ISO-10303-21;
