ISO-10303-21;
HEADER;
FILE_DESCRIPTION (( 'STEP AP203' ),
    '1' );
FILE_NAME ('010-0201E_N-BK7_PCV_mirror.STEP',
    '2021-02-25T10:43:58',
    ( '' ),
    ( '' ),
    'SwSTEP 2.0',
    'SolidWorks 2019',
    '' );
FILE_SCHEMA (( 'CONFIG_CONTROL_DESIGN' ));
ENDSEC;

DATA;
#1 = DIRECTION ( 'NONE',  ( -0.000000000000000000, -0.000000000000000000, -1.000000000000000000 ) ) ;
#2 = CC_DESIGN_APPROVAL ( #157, ( #111 ) ) ;
#3 = CARTESIAN_POINT ( 'NONE',  ( -12.69999999999999929, 0.000000000000000000, 0.000000000000000000 ) ) ;
#4 = DATE_TIME_ROLE ( 'creation_date' ) ;
#5 = LOCAL_TIME ( 12, 43, 58.00000000000000000, #98 ) ;
#6 = PERSON_AND_ORGANIZATION ( #155, #142 ) ;
#7 = ADVANCED_FACE ( 'NONE', ( #130 ), #149, .T. ) ;
#8 = CALENDAR_DATE ( 2021, 25, 2 ) ;
#9 = LOCAL_TIME ( 12, 43, 58.00000000000000000, #160 ) ;
#10 = LINE ( 'NONE', #53, #115 ) ;
#11 = ORIENTED_EDGE ( 'NONE', *, *, #59, .F. ) ;
#12 = DIRECTION ( 'NONE',  ( -0.000000000000000000, -0.000000000000000000, -1.000000000000000000 ) ) ;
#13 = DIRECTION ( 'NONE',  ( 1.000000000000000000, 0.000000000000000000, -0.000000000000000000 ) ) ;
#14 = CARTESIAN_POINT ( 'NONE',  ( 0.000000000000000000, 0.000000000000000000, 0.000000000000000000 ) ) ;
#15 = PRODUCT_DEFINITION_SHAPE ( 'NONE', 'NONE',  #111 ) ;
#16 = CALENDAR_DATE ( 2021, 25, 2 ) ;
#17 = APPROVAL_DATE_TIME ( #190, #187 ) ;
#18 = AXIS2_PLACEMENT_3D ( 'NONE', #52, #108, #134 ) ;
#19 = CALENDAR_DATE ( 2021, 25, 2 ) ;
#20 = ADVANCED_FACE ( 'NONE', ( #199 ), #153, .F. ) ;
#21 = PERSON_AND_ORGANIZATION ( #155, #142 ) ;
#22 = COORDINATED_UNIVERSAL_TIME_OFFSET ( 2, 0, .AHEAD. ) ;
#23 = CC_DESIGN_PERSON_AND_ORGANIZATION_ASSIGNMENT ( #156, #79, ( #89 ) ) ;
#24 = EDGE_CURVE ( 'NONE', #195, #85, #159, .T. ) ;
#25 = AXIS2_PLACEMENT_3D ( 'NONE', #49, #34, #186 ) ;
#26 = ORIENTED_EDGE ( 'NONE', *, *, #59, .T. ) ;
#27 = VERTEX_POINT ( 'NONE', #92 ) ;
#28 = CC_DESIGN_PERSON_AND_ORGANIZATION_ASSIGNMENT ( #141, #38, ( #35 ) ) ;
#29 = CIRCLE ( 'NONE', #166, 50.00000000000001421 ) ;
#30 = CARTESIAN_POINT ( 'NONE',  ( -12.69999999999999929, 0.000000000000000000, 6.000000000000000000 ) ) ;
#31 = DIRECTION ( 'NONE',  ( 1.000000000000000000, 0.000000000000000000, 0.000000000000000000 ) ) ;
#32 = DIRECTION ( 'NONE',  ( 0.000000000000000000, 0.000000000000000000, 1.000000000000000000 ) ) ;
#33 = ORIENTED_EDGE ( 'NONE', *, *, #173, .T. ) ;
#34 = DIRECTION ( 'NONE',  ( 0.000000000000000000, -1.000000000000000000, -0.000000000000000000 ) ) ;
#35 = SECURITY_CLASSIFICATION ( '', '', #97 ) ;
#36 = DIRECTION ( 'NONE',  ( 0.000000000000000000, 0.000000000000000000, 1.000000000000000000 ) ) ;
#37 =( LENGTH_UNIT ( ) NAMED_UNIT ( * ) SI_UNIT ( .MILLI., .METRE. ) );
#38 = PERSON_AND_ORGANIZATION_ROLE ( 'classification_officer' ) ;
#39 = CIRCLE ( 'NONE', #67, 12.69999999999999929 ) ;
#40 = APPROVAL_PERSON_ORGANIZATION ( #55, #187, #69 ) ;
#41 = APPROVAL_PERSON_ORGANIZATION ( #21, #189, #178 ) ;
#42 = ORIENTED_EDGE ( 'NONE', *, *, #139, .T. ) ;
#43 = ORIENTED_EDGE ( 'NONE', *, *, #66, .T. ) ;
#44 = ORIENTED_EDGE ( 'NONE', *, *, #164, .F. ) ;
#45 = DIRECTION ( 'NONE',  ( 0.000000000000000000, 0.000000000000000000, 1.000000000000000000 ) ) ;
#46 = AXIS2_PLACEMENT_3D ( 'NONE', #14, #36, #110 ) ;
#47 = ORIENTED_EDGE ( 'NONE', *, *, #143, .T. ) ;
#48 = DIRECTION ( 'NONE',  ( 1.000000000000000000, 0.000000000000000000, 0.000000000000000000 ) ) ;
#49 = CARTESIAN_POINT ( 'NONE',  ( 6.938893903907228378E-15, 0.000000000000000000, 54.36021091765419300 ) ) ;
#50 = CARTESIAN_POINT ( 'NONE',  ( 6.938893903907228378E-15, 0.000000000000000000, 5.999999999999998224 ) ) ;
#51 = APPLICATION_CONTEXT ( 'configuration controlled 3d designs of mechanical parts and assemblies' ) ;
#52 = CARTESIAN_POINT ( 'NONE',  ( 6.938893903907228378E-15, 0.000000000000000000, 54.36021091765419300 ) ) ;
#53 = CARTESIAN_POINT ( 'NONE',  ( 12.69999999999999929, 1.555301434917138433E-15, 6.000000000000000000 ) ) ;
#54 = LOCAL_TIME ( 12, 43, 58.00000000000000000, #185 ) ;
#55 = PERSON_AND_ORGANIZATION ( #155, #142 ) ;
#56 = ADVANCED_FACE ( 'NONE', ( #76 ), #60, .F. ) ;
#57 = CC_DESIGN_DATE_AND_TIME_ASSIGNMENT ( #70, #4, ( #111 ) ) ;
#58 = EDGE_LOOP ( 'NONE', ( #145, #47, #117 ) ) ;
#59 = EDGE_CURVE ( 'NONE', #85, #179, #165, .T. ) ;
#60 = SPHERICAL_SURFACE ( 'NONE', #71, 50.00000000000000711 ) ;
#61 = DIRECTION ( 'NONE',  ( 1.000000000000000000, 0.000000000000000000, 0.000000000000000000 ) ) ;
#62 = DIRECTION ( 'NONE',  ( 1.000000000000000000, 0.000000000000000000, 0.000000000000000000 ) ) ;
#63 = CC_DESIGN_SECURITY_CLASSIFICATION ( #35, ( #113 ) ) ;
#64 = AXIS2_PLACEMENT_3D ( 'NONE', #105, #106, #132 ) ;
#65 = DIRECTION ( 'NONE',  ( 1.000000000000000000, 0.000000000000000000, 0.000000000000000000 ) ) ;
#66 = EDGE_CURVE ( 'NONE', #195, #73, #10, .T. ) ;
#67 = AXIS2_PLACEMENT_3D ( 'NONE', #121, #32, #61 ) ;
#68 = APPROVAL_STATUS ( 'not_yet_approved' ) ;
#69 = APPROVAL_ROLE ( '' ) ;
#70 = DATE_AND_TIME ( #137, #193 ) ;
#71 = AXIS2_PLACEMENT_3D ( 'NONE', #122, #183, #48 ) ;
#72 = ORIENTED_EDGE ( 'NONE', *, *, #24, .F. ) ;
#73 = VERTEX_POINT ( 'NONE', #77 ) ;
#74 = CARTESIAN_POINT ( 'NONE',  ( 12.70000000000004725, 1.555301434917144349E-15, 5.999999999999998224 ) ) ;
#75 = MANIFOLD_SOLID_BREP ( 'Cut-Revolve1', #90 ) ;
#76 = FACE_OUTER_BOUND ( 'NONE', #87, .T. ) ;
#77 = CARTESIAN_POINT ( 'NONE',  ( 12.69999999999999929, 1.555301434917138433E-15, 0.000000000000000000 ) ) ;
#78 = CARTESIAN_POINT ( 'NONE',  ( 0.000000000000000000, 0.000000000000000000, 6.000000000000000000 ) ) ;
#79 = PERSON_AND_ORGANIZATION_ROLE ( 'design_owner' ) ;
#80 = CIRCLE ( 'NONE', #194, 12.70000000000004015 ) ;
#81 = DATE_AND_TIME ( #16, #54 ) ;
#82 = ADVANCED_BREP_SHAPE_REPRESENTATION ( '010-0201E_N-BK7_PCV_mirror', ( #75, #88 ), #124 ) ;
#83 = COORDINATED_UNIVERSAL_TIME_OFFSET ( 2, 0, .AHEAD. ) ;
#84 = PERSON_AND_ORGANIZATION_ROLE ( 'creator' ) ;
#85 = VERTEX_POINT ( 'NONE', #174 ) ;
#86 = DESIGN_CONTEXT ( 'detailed design', #163, 'design' ) ;
#87 = EDGE_LOOP ( 'NONE', ( #144, #72, #120 ) ) ;
#88 = AXIS2_PLACEMENT_3D ( 'NONE', #201, #96, #62 ) ;
#89 = PRODUCT ( '010-0201E_N-BK7_PCV_mirror', '010-0201E_N-BK7_PCV_mirror', '', ( #151 ) ) ;
#90 = CLOSED_SHELL ( 'NONE', ( #180, #182, #7, #20, #56 ) ) ;
#91 = DIRECTION ( 'NONE',  ( -0.000000000000000000, -0.000000000000000000, -1.000000000000000000 ) ) ;
#92 = CARTESIAN_POINT ( 'NONE',  ( 1.000051090177561181E-14, 0.000000000000000000, 4.360210917654185003 ) ) ;
#93 = CYLINDRICAL_SURFACE ( 'NONE', #133, 12.69999999999999929 ) ;
#94 = ORIENTED_EDGE ( 'NONE', *, *, #173, .F. ) ;
#95 = FACE_OUTER_BOUND ( 'NONE', #58, .T. ) ;
#96 = DIRECTION ( 'NONE',  ( 0.000000000000000000, 0.000000000000000000, 1.000000000000000000 ) ) ;
#97 = SECURITY_CLASSIFICATION_LEVEL ( 'unclassified' ) ;
#98 = COORDINATED_UNIVERSAL_TIME_OFFSET ( 2, 0, .AHEAD. ) ;
#99 = LOCAL_TIME ( 12, 43, 58.00000000000000000, #83 ) ;
#100 = CC_DESIGN_PERSON_AND_ORGANIZATION_ASSIGNMENT ( #162, #84, ( #111 ) ) ;
#101 = APPROVAL_PERSON_ORGANIZATION ( #200, #157, #107 ) ;
#102 = ORIENTED_EDGE ( 'NONE', *, *, #24, .T. ) ;
#103 = CARTESIAN_POINT ( 'NONE',  ( 6.938893903907228378E-15, 0.000000000000000000, 5.999999999999998224 ) ) ;
#104 = CIRCLE ( 'NONE', #18, 50.00000000000000711 ) ;
#105 = CARTESIAN_POINT ( 'NONE',  ( 0.000000000000000000, 0.000000000000000000, 6.000000000000000000 ) ) ;
#106 = DIRECTION ( 'NONE',  ( -0.000000000000000000, -0.000000000000000000, -1.000000000000000000 ) ) ;
#107 = APPROVAL_ROLE ( '' ) ;
#108 = DIRECTION ( 'NONE',  ( 1.224646799147353207E-16, -1.000000000000000000, 0.000000000000000000 ) ) ;
#109 = DIRECTION ( 'NONE',  ( -1.000000000000000000, 0.000000000000000000, 0.000000000000000000 ) ) ;
#110 = DIRECTION ( 'NONE',  ( 1.000000000000000000, 0.000000000000000000, 0.000000000000000000 ) ) ;
#111 = PRODUCT_DEFINITION ( 'UNKNOWN', '', #113, #86 ) ;
#112 = DATE_AND_TIME ( #8, #99 ) ;
#113 = PRODUCT_DEFINITION_FORMATION_WITH_SPECIFIED_SOURCE ( 'ANY', '', #89, .NOT_KNOWN. ) ;
#114 = DATE_AND_TIME ( #140, #5 ) ;
#115 = VECTOR ( 'NONE', #1, 1000.000000000000000 ) ;
#116 = PRODUCT_RELATED_PRODUCT_CATEGORY ( 'detail', '', ( #89 ) ) ;
#117 = ORIENTED_EDGE ( 'NONE', *, *, #129, .F. ) ;
#118 = CC_DESIGN_APPROVAL ( #189, ( #113 ) ) ;
#119 = CC_DESIGN_DATE_AND_TIME_ASSIGNMENT ( #112, #125, ( #35 ) ) ;
#120 = ORIENTED_EDGE ( 'NONE', *, *, #129, .T. ) ;
#121 = CARTESIAN_POINT ( 'NONE',  ( 0.000000000000000000, 0.000000000000000000, 0.000000000000000000 ) ) ;
#122 = CARTESIAN_POINT ( 'NONE',  ( 6.938893903907228378E-15, 0.000000000000000000, 54.36021091765419300 ) ) ;
#123 = APPLICATION_PROTOCOL_DEFINITION ( 'international standard', 'config_control_design', 1994, #163 ) ;
#124 =( GEOMETRIC_REPRESENTATION_CONTEXT ( 3 ) GLOBAL_UNCERTAINTY_ASSIGNED_CONTEXT ( ( #148 ) ) GLOBAL_UNIT_ASSIGNED_CONTEXT ( ( #37, #135, #198 ) ) REPRESENTATION_CONTEXT ( 'NONE', 'WORKASPACE' ) );
#125 = DATE_TIME_ROLE ( 'classification_date' ) ;
#126 = APPROVAL_DATE_TIME ( #114, #189 ) ;
#127 = CIRCLE ( 'NONE', #46, 12.69999999999999929 ) ;
#128 = ORIENTED_EDGE ( 'NONE', *, *, #164, .T. ) ;
#129 = EDGE_CURVE ( 'NONE', #195, #27, #29, .T. ) ;
#130 = FACE_OUTER_BOUND ( 'NONE', #150, .T. ) ;
#131 = FACE_OUTER_BOUND ( 'NONE', #181, .T. ) ;
#132 = DIRECTION ( 'NONE',  ( -1.000000000000000000, 0.000000000000000000, 0.000000000000000000 ) ) ;
#133 = AXIS2_PLACEMENT_3D ( 'NONE', #78, #12, #109 ) ;
#134 = DIRECTION ( 'NONE',  ( 1.000000000000000000, 1.224646799147353207E-16, 0.000000000000000000 ) ) ;
#135 =( NAMED_UNIT ( * ) PLANE_ANGLE_UNIT ( ) SI_UNIT ( $, .RADIAN. ) );
#136 = VECTOR ( 'NONE', #91, 1000.000000000000000 ) ;
#137 = CALENDAR_DATE ( 2021, 25, 2 ) ;
#138 = PERSON_AND_ORGANIZATION_ROLE ( 'creator' ) ;
#139 = EDGE_CURVE ( 'NONE', #85, #195, #80, .T. ) ;
#140 = CALENDAR_DATE ( 2021, 25, 2 ) ;
#141 = PERSON_AND_ORGANIZATION ( #155, #142 ) ;
#142 = ORGANIZATION ( 'UNSPECIFIED', 'UNSPECIFIED', '' ) ;
#143 = EDGE_CURVE ( 'NONE', #85, #27, #104, .T. ) ;
#144 = ORIENTED_EDGE ( 'NONE', *, *, #143, .F. ) ;
#145 = ORIENTED_EDGE ( 'NONE', *, *, #139, .F. ) ;
#146 = CC_DESIGN_APPROVAL ( #187, ( #35 ) ) ;
#147 = AXIS2_PLACEMENT_3D ( 'NONE', #103, #197, #31 ) ;
#148 = UNCERTAINTY_MEASURE_WITH_UNIT (LENGTH_MEASURE( 1.000000000000000082E-05 ), #37, 'distance_accuracy_value', 'NONE');
#149 = CYLINDRICAL_SURFACE ( 'NONE', #64, 12.69999999999999929 ) ;
#150 = EDGE_LOOP ( 'NONE', ( #196, #102, #26, #128 ) ) ;
#151 = MECHANICAL_CONTEXT ( 'NONE', #51, 'mechanical' ) ;
#152 = CC_DESIGN_PERSON_AND_ORGANIZATION_ASSIGNMENT ( #6, #138, ( #113 ) ) ;
#153 = PLANE ( 'NONE',  #177 ) ;
#154 = DIRECTION ( 'NONE',  ( 0.000000000000000000, 1.000000000000000000, -0.000000000000000000 ) ) ;
#155 = PERSON ( 'UNSPECIFIED', 'UNSPECIFIED', 'UNSPECIFIED', ('UNSPECIFIED'), ('UNSPECIFIED'), ('UNSPECIFIED') ) ;
#156 = PERSON_AND_ORGANIZATION ( #155, #142 ) ;
#157 = APPROVAL ( #184, 'UNSPECIFIED' ) ;
#158 = APPROVAL_STATUS ( 'not_yet_approved' ) ;
#159 = CIRCLE ( 'NONE', #147, 12.70000000000004015 ) ;
#160 = COORDINATED_UNIVERSAL_TIME_OFFSET ( 2, 0, .AHEAD. ) ;
#161 = APPROVAL_DATE_TIME ( #81, #157 ) ;
#162 = PERSON_AND_ORGANIZATION ( #155, #142 ) ;
#163 = APPLICATION_CONTEXT ( 'configuration controlled 3d designs of mechanical parts and assemblies' ) ;
#164 = EDGE_CURVE ( 'NONE', #179, #73, #127, .T. ) ;
#165 = LINE ( 'NONE', #30, #136 ) ;
#166 = AXIS2_PLACEMENT_3D ( 'NONE', #170, #154, #188 ) ;
#167 = CARTESIAN_POINT ( 'NONE',  ( 0.000000000000000000, 0.000000000000000000, 0.000000000000000000 ) ) ;
#168 = APPLICATION_PROTOCOL_DEFINITION ( 'international standard', 'config_control_design', 1994, #51 ) ;
#169 = EDGE_LOOP ( 'NONE', ( #44, #94 ) ) ;
#170 = CARTESIAN_POINT ( 'NONE',  ( 6.938893903907228378E-15, 0.000000000000000000, 54.36021091765419300 ) ) ;
#171 = SPHERICAL_SURFACE ( 'NONE', #25, 50.00000000000000711 ) ;
#172 = DIRECTION ( 'NONE',  ( -0.000000000000000000, -0.000000000000000000, -1.000000000000000000 ) ) ;
#173 = EDGE_CURVE ( 'NONE', #73, #179, #39, .T. ) ;
#174 = CARTESIAN_POINT ( 'NONE',  ( -12.70000000000003482, 0.000000000000000000, 5.999999999999998224 ) ) ;
#175 = SHAPE_DEFINITION_REPRESENTATION ( #15, #82 ) ;
#176 = PERSON_AND_ORGANIZATION_ROLE ( 'design_supplier' ) ;
#177 = AXIS2_PLACEMENT_3D ( 'NONE', #167, #45, #13 ) ;
#178 = APPROVAL_ROLE ( '' ) ;
#179 = VERTEX_POINT ( 'NONE', #3 ) ;
#180 = ADVANCED_FACE ( 'NONE', ( #95 ), #171, .F. ) ;
#181 = EDGE_LOOP ( 'NONE', ( #42, #43, #33, #11 ) ) ;
#182 = ADVANCED_FACE ( 'NONE', ( #131 ), #93, .T. ) ;
#183 = DIRECTION ( 'NONE',  ( 0.000000000000000000, -1.000000000000000000, -0.000000000000000000 ) ) ;
#184 = APPROVAL_STATUS ( 'not_yet_approved' ) ;
#185 = COORDINATED_UNIVERSAL_TIME_OFFSET ( 2, 0, .AHEAD. ) ;
#186 = DIRECTION ( 'NONE',  ( 1.000000000000000000, 0.000000000000000000, 0.000000000000000000 ) ) ;
#187 = APPROVAL ( #158, 'UNSPECIFIED' ) ;
#188 = DIRECTION ( 'NONE',  ( 0.000000000000000000, 0.000000000000000000, 1.000000000000000000 ) ) ;
#189 = APPROVAL ( #68, 'UNSPECIFIED' ) ;
#190 = DATE_AND_TIME ( #19, #9 ) ;
#191 = PERSON_AND_ORGANIZATION ( #155, #142 ) ;
#192 = CC_DESIGN_PERSON_AND_ORGANIZATION_ASSIGNMENT ( #191, #176, ( #113 ) ) ;
#193 = LOCAL_TIME ( 12, 43, 58.00000000000000000, #22 ) ;
#194 = AXIS2_PLACEMENT_3D ( 'NONE', #50, #172, #65 ) ;
#195 = VERTEX_POINT ( 'NONE', #74 ) ;
#196 = ORIENTED_EDGE ( 'NONE', *, *, #66, .F. ) ;
#197 = DIRECTION ( 'NONE',  ( -0.000000000000000000, -0.000000000000000000, -1.000000000000000000 ) ) ;
#198 =( NAMED_UNIT ( * ) SI_UNIT ( $, .STERADIAN. ) SOLID_ANGLE_UNIT ( ) );
#199 = FACE_OUTER_BOUND ( 'NONE', #169, .T. ) ;
#200 = PERSON_AND_ORGANIZATION ( #155, #142 ) ;
#201 = CARTESIAN_POINT ( 'NONE',  ( 0.000000000000000000, 0.000000000000000000, 0.000000000000000000 ) ) ;
ENDSEC;
END-ISO-10303-21;
