ISO-10303-21;
HEADER;
FILE_DESCRIPTION (( 'STEP AP203' ),
    '1' );
FILE_NAME ('010-0150T6_N-BK7_PCV_window.STEP',
    '2021-02-25T09:31:50',
    ( '' ),
    ( '' ),
    'SwSTEP 2.0',
    'SolidWorks 2019',
    '' );
FILE_SCHEMA (( 'CONFIG_CONTROL_DESIGN' ));
ENDSEC;

DATA;
#1 = ORIENTED_EDGE ( 'NONE', *, *, #45, .F. ) ;
#2 =( GEOMETRIC_REPRESENTATION_CONTEXT ( 3 ) GLOBAL_UNCERTAINTY_ASSIGNED_CONTEXT ( ( #99 ) ) GLOBAL_UNIT_ASSIGNED_CONTEXT ( ( #47, #13, #178 ) ) REPRESENTATION_CONTEXT ( 'NONE', 'WORKASPACE' ) );
#3 = PERSON_AND_ORGANIZATION_ROLE ( 'design_supplier' ) ;
#4 = FACE_OUTER_BOUND ( 'NONE', #94, .T. ) ;
#5 = ORIENTED_EDGE ( 'NONE', *, *, #133, .T. ) ;
#6 = CC_DESIGN_DATE_AND_TIME_ASSIGNMENT ( #160, #145, ( #72 ) ) ;
#7 = CC_DESIGN_APPROVAL ( #17, ( #72 ) ) ;
#8 = CARTESIAN_POINT ( 'NONE',  ( 0.000000000000000000, 0.000000000000000000, 0.000000000000000000 ) ) ;
#9 = CARTESIAN_POINT ( 'NONE',  ( 6.349999999999999645, 7.776507174585692163E-16, 6.000000000000000000 ) ) ;
#10 = SPHERICAL_SURFACE ( 'NONE', #27, 5000.000000000000000 ) ;
#11 = DIRECTION ( 'NONE',  ( -0.000000000000000000, -0.000000000000000000, -1.000000000000000000 ) ) ;
#12 = LOCAL_TIME ( 11, 31, 50.00000000000000000, #122 ) ;
#13 =( NAMED_UNIT ( * ) PLANE_ANGLE_UNIT ( ) SI_UNIT ( $, .RADIAN. ) );
#14 = APPROVAL_DATE_TIME ( #147, #83 ) ;
#15 = PRODUCT_RELATED_PRODUCT_CATEGORY ( 'detail', '', ( #182 ) ) ;
#16 = FACE_OUTER_BOUND ( 'NONE', #142, .T. ) ;
#17 = APPROVAL ( #57, 'UNSPECIFIED' ) ;
#18 = AXIS2_PLACEMENT_3D ( 'NONE', #78, #56, #127 ) ;
#19 = ORIENTED_EDGE ( 'NONE', *, *, #45, .T. ) ;
#20 = ADVANCED_FACE ( 'NONE', ( #125 ), #140, .F. ) ;
#21 = DIRECTION ( 'NONE',  ( -0.000000000000000000, -0.000000000000000000, -1.000000000000000000 ) ) ;
#22 = CIRCLE ( 'NONE', #164, 6.349999999883787716 ) ;
#23 = DIRECTION ( 'NONE',  ( 1.000000000000000000, 0.000000000000000000, 0.000000000000000000 ) ) ;
#24 = EDGE_CURVE ( 'NONE', #82, #95, #135, .T. ) ;
#25 = CARTESIAN_POINT ( 'NONE',  ( 6.349999999999999645, 7.776507174585692163E-16, 0.000000000000000000 ) ) ;
#26 = SPHERICAL_SURFACE ( 'NONE', #148, 5000.000000000000000 ) ;
#27 = AXIS2_PLACEMENT_3D ( 'NONE', #168, #35, #53 ) ;
#28 = CALENDAR_DATE ( 2021, 25, 2 ) ;
#29 = ADVANCED_FACE ( 'NONE', ( #4 ), #10, .F. ) ;
#30 = PERSON_AND_ORGANIZATION ( #201, #181 ) ;
#31 = EDGE_LOOP ( 'NONE', ( #184, #166, #138, #183 ) ) ;
#32 = CARTESIAN_POINT ( 'NONE',  ( 0.000000000000000000, 0.000000000000000000, 0.000000000000000000 ) ) ;
#33 = APPROVAL_PERSON_ORGANIZATION ( #30, #83, #84 ) ;
#34 = SHAPE_DEFINITION_REPRESENTATION ( #200, #172 ) ;
#35 = DIRECTION ( 'NONE',  ( 0.000000000000000000, -1.000000000000000000, -0.000000000000000000 ) ) ;
#36 = APPROVAL_PERSON_ORGANIZATION ( #176, #17, #129 ) ;
#37 = DIRECTION ( 'NONE',  ( 0.000000000000000000, 1.000000000000000000, -0.000000000000000000 ) ) ;
#38 = VERTEX_POINT ( 'NONE', #39 ) ;
#39 = CARTESIAN_POINT ( 'NONE',  ( -6.349999999883173984, 0.000000000000000000, 6.000000000000227374 ) ) ;
#40 = ADVANCED_FACE ( 'NONE', ( #185 ), #55, .T. ) ;
#41 = LOCAL_TIME ( 11, 31, 50.00000000000000000, #100 ) ;
#42 = DIRECTION ( 'NONE',  ( 1.000000000000000000, 1.224646799147353207E-16, 0.000000000000000000 ) ) ;
#43 = DIRECTION ( 'NONE',  ( -0.000000000000000000, -0.000000000000000000, -1.000000000000000000 ) ) ;
#44 = APPLICATION_CONTEXT ( 'configuration controlled 3d designs of mechanical parts and assemblies' ) ;
#45 = EDGE_CURVE ( 'NONE', #137, #77, #189, .T. ) ;
#46 = COORDINATED_UNIVERSAL_TIME_OFFSET ( 2, 0, .AHEAD. ) ;
#47 =( LENGTH_UNIT ( ) NAMED_UNIT ( * ) SI_UNIT ( .MILLI., .METRE. ) );
#48 = VECTOR ( 'NONE', #11, 1000.000000000000000 ) ;
#49 = EDGE_CURVE ( 'NONE', #38, #137, #22, .T. ) ;
#50 = CC_DESIGN_PERSON_AND_ORGANIZATION_ASSIGNMENT ( #106, #3, ( #62 ) ) ;
#51 = CARTESIAN_POINT ( 'NONE',  ( 0.000000000000000000, 0.000000000000000000, 6.000000000000000000 ) ) ;
#52 = SECURITY_CLASSIFICATION_LEVEL ( 'unclassified' ) ;
#53 = DIRECTION ( 'NONE',  ( 1.000000000000000000, 0.000000000000000000, 0.000000000000000000 ) ) ;
#54 = CC_DESIGN_APPROVAL ( #98, ( #89 ) ) ;
#55 = CYLINDRICAL_SURFACE ( 'NONE', #75, 6.349999999999999645 ) ;
#56 = DIRECTION ( 'NONE',  ( -0.000000000000000000, -0.000000000000000000, -1.000000000000000000 ) ) ;
#57 = APPROVAL_STATUS ( 'not_yet_approved' ) ;
#58 = PERSON_AND_ORGANIZATION ( #201, #181 ) ;
#59 = CYLINDRICAL_SURFACE ( 'NONE', #105, 6.349999999999999645 ) ;
#60 = AXIS2_PLACEMENT_3D ( 'NONE', #68, #128, #42 ) ;
#61 = ORIENTED_EDGE ( 'NONE', *, *, #24, .F. ) ;
#62 = PRODUCT_DEFINITION_FORMATION_WITH_SPECIFIED_SOURCE ( 'ANY', '', #182, .NOT_KNOWN. ) ;
#63 = CALENDAR_DATE ( 2021, 25, 2 ) ;
#64 = DATE_AND_TIME ( #63, #12 ) ;
#65 = ORIENTED_EDGE ( 'NONE', *, *, #192, .T. ) ;
#66 = DIRECTION ( 'NONE',  ( -0.000000000000000000, -0.000000000000000000, -1.000000000000000000 ) ) ;
#67 = DIRECTION ( 'NONE',  ( 1.000000000000000000, 0.000000000000000000, -0.000000000000000000 ) ) ;
#68 = CARTESIAN_POINT ( 'NONE',  ( 6.140921104957897114E-13, 0.000000000000000000, 5005.995967748373914 ) ) ;
#69 = AXIS2_PLACEMENT_3D ( 'NONE', #110, #157, #23 ) ;
#70 = APPROVAL_DATE_TIME ( #86, #17 ) ;
#71 = VECTOR ( 'NONE', #112, 1000.000000000000000 ) ;
#72 = PRODUCT_DEFINITION ( 'UNKNOWN', '', #62, #161 ) ;
#73 = ORIENTED_EDGE ( 'NONE', *, *, #131, .F. ) ;
#74 = CALENDAR_DATE ( 2021, 25, 2 ) ;
#75 = AXIS2_PLACEMENT_3D ( 'NONE', #51, #66, #109 ) ;
#76 = ORIENTED_EDGE ( 'NONE', *, *, #113, .T. ) ;
#77 = VERTEX_POINT ( 'NONE', #173 ) ;
#78 = CARTESIAN_POINT ( 'NONE',  ( 6.140921104957897114E-13, 0.000000000000000000, 6.000000000000227374 ) ) ;
#79 = DIRECTION ( 'NONE',  ( 0.000000000000000000, 0.000000000000000000, 1.000000000000000000 ) ) ;
#80 = CIRCLE ( 'NONE', #60, 5000.000000000000000 ) ;
#81 = CC_DESIGN_PERSON_AND_ORGANIZATION_ASSIGNMENT ( #156, #126, ( #62 ) ) ;
#82 = VERTEX_POINT ( 'NONE', #175 ) ;
#83 = APPROVAL ( #191, 'UNSPECIFIED' ) ;
#84 = APPROVAL_ROLE ( '' ) ;
#85 = CLOSED_SHELL ( 'NONE', ( #153, #40, #180, #20, #29 ) ) ;
#86 = DATE_AND_TIME ( #28, #144 ) ;
#87 = DIRECTION ( 'NONE',  ( 0.000000000000000000, -1.000000000000000000, -0.000000000000000000 ) ) ;
#88 = COORDINATED_UNIVERSAL_TIME_OFFSET ( 2, 0, .AHEAD. ) ;
#89 = SECURITY_CLASSIFICATION ( '', '', #52 ) ;
#90 = ORIENTED_EDGE ( 'NONE', *, *, #133, .F. ) ;
#91 = MECHANICAL_CONTEXT ( 'NONE', #92, 'mechanical' ) ;
#92 = APPLICATION_CONTEXT ( 'configuration controlled 3d designs of mechanical parts and assemblies' ) ;
#93 = COORDINATED_UNIVERSAL_TIME_OFFSET ( 2, 0, .AHEAD. ) ;
#94 = EDGE_LOOP ( 'NONE', ( #90, #196, #19 ) ) ;
#95 = VERTEX_POINT ( 'NONE', #25 ) ;
#96 = ORIENTED_EDGE ( 'NONE', *, *, #24, .T. ) ;
#97 = DIRECTION ( 'NONE',  ( 0.000000000000000000, 0.000000000000000000, 1.000000000000000000 ) ) ;
#98 = APPROVAL ( #186, 'UNSPECIFIED' ) ;
#99 = UNCERTAINTY_MEASURE_WITH_UNIT (LENGTH_MEASURE( 1.000000000000000082E-05 ), #47, 'distance_accuracy_value', 'NONE');
#100 = COORDINATED_UNIVERSAL_TIME_OFFSET ( 2, 0, .AHEAD. ) ;
#101 = PERSON_AND_ORGANIZATION ( #201, #181 ) ;
#102 = DIRECTION ( 'NONE',  ( -1.000000000000000000, 0.000000000000000000, 0.000000000000000000 ) ) ;
#103 = CIRCLE ( 'NONE', #18, 6.349999999883787716 ) ;
#104 = CARTESIAN_POINT ( 'NONE',  ( -6.349999999999999645, 0.000000000000000000, 6.000000000000000000 ) ) ;
#105 = AXIS2_PLACEMENT_3D ( 'NONE', #114, #43, #102 ) ;
#106 = PERSON_AND_ORGANIZATION ( #201, #181 ) ;
#107 = CARTESIAN_POINT ( 'NONE',  ( 0.000000000000000000, 0.000000000000000000, 0.000000000000000000 ) ) ;
#108 = AXIS2_PLACEMENT_3D ( 'NONE', #8, #79, #67 ) ;
#109 = DIRECTION ( 'NONE',  ( -1.000000000000000000, 0.000000000000000000, 0.000000000000000000 ) ) ;
#110 = CARTESIAN_POINT ( 'NONE',  ( 0.000000000000000000, 0.000000000000000000, 0.000000000000000000 ) ) ;
#111 = DIRECTION ( 'NONE',  ( 1.000000000000000000, 0.000000000000000000, 0.000000000000000000 ) ) ;
#112 = DIRECTION ( 'NONE',  ( -0.000000000000000000, -0.000000000000000000, -1.000000000000000000 ) ) ;
#113 = EDGE_CURVE ( 'NONE', #137, #38, #103, .T. ) ;
#114 = CARTESIAN_POINT ( 'NONE',  ( 0.000000000000000000, 0.000000000000000000, 6.000000000000000000 ) ) ;
#115 = CALENDAR_DATE ( 2021, 25, 2 ) ;
#116 = AXIS2_PLACEMENT_3D ( 'NONE', #32, #130, #194 ) ;
#117 = EDGE_CURVE ( 'NONE', #95, #82, #152, .T. ) ;
#118 = PERSON_AND_ORGANIZATION_ROLE ( 'creator' ) ;
#119 = LINE ( 'NONE', #104, #48 ) ;
#120 = CC_DESIGN_SECURITY_CLASSIFICATION ( #89, ( #62 ) ) ;
#121 = PERSON_AND_ORGANIZATION_ROLE ( 'classification_officer' ) ;
#122 = COORDINATED_UNIVERSAL_TIME_OFFSET ( 2, 0, .AHEAD. ) ;
#123 = APPROVAL_PERSON_ORGANIZATION ( #124, #98, #151 ) ;
#124 = PERSON_AND_ORGANIZATION ( #201, #181 ) ;
#125 = FACE_OUTER_BOUND ( 'NONE', #134, .T. ) ;
#126 = PERSON_AND_ORGANIZATION_ROLE ( 'creator' ) ;
#127 = DIRECTION ( 'NONE',  ( 1.000000000000000000, 0.000000000000000000, 0.000000000000000000 ) ) ;
#128 = DIRECTION ( 'NONE',  ( 1.224646799147353207E-16, -1.000000000000000000, 0.000000000000000000 ) ) ;
#129 = APPROVAL_ROLE ( '' ) ;
#130 = DIRECTION ( 'NONE',  ( 0.000000000000000000, 0.000000000000000000, 1.000000000000000000 ) ) ;
#131 = EDGE_CURVE ( 'NONE', #137, #95, #141, .T. ) ;
#132 = CARTESIAN_POINT ( 'NONE',  ( 6.140921104957897114E-13, 0.000000000000000000, 5005.995967748373914 ) ) ;
#133 = EDGE_CURVE ( 'NONE', #38, #77, #80, .T. ) ;
#134 = EDGE_LOOP ( 'NONE', ( #61, #154 ) ) ;
#135 = CIRCLE ( 'NONE', #163, 6.349999999999999645 ) ;
#136 = PERSON_AND_ORGANIZATION ( #201, #181 ) ;
#137 = VERTEX_POINT ( 'NONE', #143 ) ;
#138 = ORIENTED_EDGE ( 'NONE', *, *, #117, .T. ) ;
#139 = LOCAL_TIME ( 11, 31, 50.00000000000000000, #88 ) ;
#140 = PLANE ( 'NONE',  #108 ) ;
#141 = LINE ( 'NONE', #9, #71 ) ;
#142 = EDGE_LOOP ( 'NONE', ( #171, #5, #1 ) ) ;
#143 = CARTESIAN_POINT ( 'NONE',  ( 6.349999999884402335, 7.776507174514910632E-16, 6.000000000000227374 ) ) ;
#144 = LOCAL_TIME ( 11, 31, 50.00000000000000000, #46 ) ;
#145 = DATE_TIME_ROLE ( 'creation_date' ) ;
#146 = DIRECTION ( 'NONE',  ( 1.000000000000000000, 0.000000000000000000, 0.000000000000000000 ) ) ;
#147 = DATE_AND_TIME ( #115, #139 ) ;
#148 = AXIS2_PLACEMENT_3D ( 'NONE', #132, #87, #146 ) ;
#149 = CC_DESIGN_PERSON_AND_ORGANIZATION_ASSIGNMENT ( #58, #118, ( #72 ) ) ;
#150 = APPROVAL_DATE_TIME ( #199, #98 ) ;
#151 = APPROVAL_ROLE ( '' ) ;
#152 = CIRCLE ( 'NONE', #69, 6.349999999999999645 ) ;
#153 = ADVANCED_FACE ( 'NONE', ( #16 ), #26, .F. ) ;
#154 = ORIENTED_EDGE ( 'NONE', *, *, #117, .F. ) ;
#155 = CARTESIAN_POINT ( 'NONE',  ( 6.140921104957897114E-13, 0.000000000000000000, 6.000000000000227374 ) ) ;
#156 = PERSON_AND_ORGANIZATION ( #201, #181 ) ;
#157 = DIRECTION ( 'NONE',  ( 0.000000000000000000, 0.000000000000000000, 1.000000000000000000 ) ) ;
#158 = CC_DESIGN_DATE_AND_TIME_ASSIGNMENT ( #64, #165, ( #89 ) ) ;
#159 = DIRECTION ( 'NONE',  ( 1.000000000000000000, 0.000000000000000000, 0.000000000000000000 ) ) ;
#160 = DATE_AND_TIME ( #179, #41 ) ;
#161 = DESIGN_CONTEXT ( 'detailed design', #44, 'design' ) ;
#162 = APPLICATION_PROTOCOL_DEFINITION ( 'international standard', 'config_control_design', 1994, #92 ) ;
#163 = AXIS2_PLACEMENT_3D ( 'NONE', #107, #188, #159 ) ;
#164 = AXIS2_PLACEMENT_3D ( 'NONE', #155, #21, #111 ) ;
#165 = DATE_TIME_ROLE ( 'classification_date' ) ;
#166 = ORIENTED_EDGE ( 'NONE', *, *, #131, .T. ) ;
#167 = CC_DESIGN_PERSON_AND_ORGANIZATION_ASSIGNMENT ( #136, #121, ( #89 ) ) ;
#168 = CARTESIAN_POINT ( 'NONE',  ( 6.140921104957897114E-13, 0.000000000000000000, 5005.995967748373914 ) ) ;
#169 = EDGE_LOOP ( 'NONE', ( #73, #76, #65, #96 ) ) ;
#170 = CARTESIAN_POINT ( 'NONE',  ( 6.140921104957897114E-13, 0.000000000000000000, 5005.995967748373914 ) ) ;
#171 = ORIENTED_EDGE ( 'NONE', *, *, #49, .F. ) ;
#172 = ADVANCED_BREP_SHAPE_REPRESENTATION ( '010-0150T6_N-BK7_PCV_window', ( #198, #116 ), #2 ) ;
#173 = CARTESIAN_POINT ( 'NONE',  ( 9.202538102826278847E-13, 0.000000000000000000, 5.995967748374297912 ) ) ;
#174 = CC_DESIGN_APPROVAL ( #83, ( #62 ) ) ;
#175 = CARTESIAN_POINT ( 'NONE',  ( -6.349999999999999645, 0.000000000000000000, 0.000000000000000000 ) ) ;
#176 = PERSON_AND_ORGANIZATION ( #201, #181 ) ;
#177 = FACE_OUTER_BOUND ( 'NONE', #169, .T. ) ;
#178 =( NAMED_UNIT ( * ) SI_UNIT ( $, .STERADIAN. ) SOLID_ANGLE_UNIT ( ) );
#179 = CALENDAR_DATE ( 2021, 25, 2 ) ;
#180 = ADVANCED_FACE ( 'NONE', ( #177 ), #59, .T. ) ;
#181 = ORGANIZATION ( 'UNSPECIFIED', 'UNSPECIFIED', '' ) ;
#182 = PRODUCT ( '010-0150T6_N-BK7_PCV_window', '010-0150T6_N-BK7_PCV_window', '', ( #91 ) ) ;
#183 = ORIENTED_EDGE ( 'NONE', *, *, #192, .F. ) ;
#184 = ORIENTED_EDGE ( 'NONE', *, *, #49, .T. ) ;
#185 = FACE_OUTER_BOUND ( 'NONE', #31, .T. ) ;
#186 = APPROVAL_STATUS ( 'not_yet_approved' ) ;
#187 = CC_DESIGN_PERSON_AND_ORGANIZATION_ASSIGNMENT ( #101, #190, ( #182 ) ) ;
#188 = DIRECTION ( 'NONE',  ( 0.000000000000000000, 0.000000000000000000, 1.000000000000000000 ) ) ;
#189 = CIRCLE ( 'NONE', #197, 5000.000000000000000 ) ;
#190 = PERSON_AND_ORGANIZATION_ROLE ( 'design_owner' ) ;
#191 = APPROVAL_STATUS ( 'not_yet_approved' ) ;
#192 = EDGE_CURVE ( 'NONE', #38, #82, #119, .T. ) ;
#193 = APPLICATION_PROTOCOL_DEFINITION ( 'international standard', 'config_control_design', 1994, #44 ) ;
#194 = DIRECTION ( 'NONE',  ( 1.000000000000000000, 0.000000000000000000, 0.000000000000000000 ) ) ;
#195 = LOCAL_TIME ( 11, 31, 50.00000000000000000, #93 ) ;
#196 = ORIENTED_EDGE ( 'NONE', *, *, #113, .F. ) ;
#197 = AXIS2_PLACEMENT_3D ( 'NONE', #170, #37, #97 ) ;
#198 = MANIFOLD_SOLID_BREP ( 'Cut-Revolve1', #85 ) ;
#199 = DATE_AND_TIME ( #74, #195 ) ;
#200 = PRODUCT_DEFINITION_SHAPE ( 'NONE', 'NONE',  #72 ) ;
#201 = PERSON ( 'UNSPECIFIED', 'UNSPECIFIED', 'UNSPECIFIED', ('UNSPECIFIED'), ('UNSPECIFIED'), ('UNSPECIFIED') ) ;
ENDSEC;
END-ISO-10303-21;
