ISO-10303-21;
HEADER;
FILE_DESCRIPTION (( 'STEP AP203' ),
    '1' );
FILE_NAME ('010-0150E_N-BK7_PCV_window.STEP',
    '2021-02-25T08:26:18',
    ( '' ),
    ( '' ),
    'SwSTEP 2.0',
    'SolidWorks 2019',
    '' );
FILE_SCHEMA (( 'CONFIG_CONTROL_DESIGN' ));
ENDSEC;

DATA;
#1 = DIRECTION ( 'NONE',  ( 1.000000000000000000, 0.000000000000000000, 0.000000000000000000 ) ) ;
#2 = APPLICATION_CONTEXT ( 'configuration controlled 3d designs of mechanical parts and assemblies' ) ;
#3 = CARTESIAN_POINT ( 'NONE',  ( 0.000000000000000000, 0.000000000000000000, 0.000000000000000000 ) ) ;
#4 = APPROVAL_STATUS ( 'not_yet_approved' ) ;
#5 = APPROVAL_ROLE ( '' ) ;
#6 = DATE_AND_TIME ( #84, #193 ) ;
#7 = APPROVAL_STATUS ( 'not_yet_approved' ) ;
#8 = EDGE_CURVE ( 'NONE', #149, #60, #86, .T. ) ;
#9 = DIRECTION ( 'NONE',  ( 0.000000000000000000, 0.000000000000000000, 1.000000000000000000 ) ) ;
#10 = APPROVAL_ROLE ( '' ) ;
#11 = DIRECTION ( 'NONE',  ( 1.224646799147353207E-16, -1.000000000000000000, 0.000000000000000000 ) ) ;
#12 = CALENDAR_DATE ( 2021, 25, 2 ) ;
#13 = AXIS2_PLACEMENT_3D ( 'NONE', #197, #42, #63 ) ;
#14 = DIRECTION ( 'NONE',  ( 1.000000000000000000, 0.000000000000000000, 0.000000000000000000 ) ) ;
#15 = CC_DESIGN_APPROVAL ( #30, ( #168 ) ) ;
#16 = CARTESIAN_POINT ( 'NONE',  ( 0.000000000000000000, 0.000000000000000000, 3.000000000000000000 ) ) ;
#17 = ADVANCED_FACE ( 'NONE', ( #195 ), #26, .F. ) ;
#18 = DIRECTION ( 'NONE',  ( -1.000000000000000000, 0.000000000000000000, 0.000000000000000000 ) ) ;
#19 = PERSON_AND_ORGANIZATION ( #154, #54 ) ;
#20 = APPLICATION_PROTOCOL_DEFINITION ( 'international standard', 'config_control_design', 1994, #2 ) ;
#21 = AXIS2_PLACEMENT_3D ( 'NONE', #29, #152, #77 ) ;
#22 = ADVANCED_FACE ( 'NONE', ( #56 ), #39, .T. ) ;
#23 = EDGE_LOOP ( 'NONE', ( #128, #192 ) ) ;
#24 = ORIENTED_EDGE ( 'NONE', *, *, #164, .T. ) ;
#25 = ORIENTED_EDGE ( 'NONE', *, *, #67, .F. ) ;
#26 = PLANE ( 'NONE',  #185 ) ;
#27 = AXIS2_PLACEMENT_3D ( 'NONE', #3, #32, #1 ) ;
#28 = LINE ( 'NONE', #196, #131 ) ;
#29 = CARTESIAN_POINT ( 'NONE',  ( 0.000000000000000000, 0.000000000000000000, 0.000000000000000000 ) ) ;
#30 = APPROVAL ( #171, 'UNSPECIFIED' ) ;
#31 = AXIS2_PLACEMENT_3D ( 'NONE', #146, #9, #182 ) ;
#32 = DIRECTION ( 'NONE',  ( 0.000000000000000000, 0.000000000000000000, 1.000000000000000000 ) ) ;
#33 = DATE_TIME_ROLE ( 'creation_date' ) ;
#34 =( NAMED_UNIT ( * ) PLANE_ANGLE_UNIT ( ) SI_UNIT ( $, .RADIAN. ) );
#35 = CC_DESIGN_PERSON_AND_ORGANIZATION_ASSIGNMENT ( #126, #59, ( #168 ) ) ;
#36 = DATE_AND_TIME ( #120, #53 ) ;
#37 = DIRECTION ( 'NONE',  ( -0.000000000000000000, -0.000000000000000000, -1.000000000000000000 ) ) ;
#38 = ORIENTED_EDGE ( 'NONE', *, *, #172, .F. ) ;
#39 = CYLINDRICAL_SURFACE ( 'NONE', #44, 6.349999999999999645 ) ;
#40 = AXIS2_PLACEMENT_3D ( 'NONE', #85, #189, #57 ) ;
#41 = ORIENTED_EDGE ( 'NONE', *, *, #62, .T. ) ;
#42 = DIRECTION ( 'NONE',  ( 0.000000000000000000, 1.000000000000000000, -0.000000000000000000 ) ) ;
#43 = APPROVAL_PERSON_ORGANIZATION ( #51, #151, #66 ) ;
#44 = AXIS2_PLACEMENT_3D ( 'NONE', #88, #37, #102 ) ;
#45 = CYLINDRICAL_SURFACE ( 'NONE', #97, 6.349999999999999645 ) ;
#46 = ADVANCED_FACE ( 'NONE', ( #82 ), #124, .F. ) ;
#47 = FACE_OUTER_BOUND ( 'NONE', #91, .T. ) ;
#48 = CIRCLE ( 'NONE', #158, 6.349999999883787716 ) ;
#49 =( NAMED_UNIT ( * ) SI_UNIT ( $, .STERADIAN. ) SOLID_ANGLE_UNIT ( ) );
#50 = PERSON_AND_ORGANIZATION ( #154, #54 ) ;
#51 = PERSON_AND_ORGANIZATION ( #154, #54 ) ;
#52 = PRODUCT_RELATED_PRODUCT_CATEGORY ( 'detail', '', ( #188 ) ) ;
#53 = LOCAL_TIME ( 10, 26, 18.00000000000000000, #156 ) ;
#54 = ORGANIZATION ( 'UNSPECIFIED', 'UNSPECIFIED', '' ) ;
#55 = APPROVAL_DATE_TIME ( #6, #30 ) ;
#56 = FACE_OUTER_BOUND ( 'NONE', #104, .T. ) ;
#57 = DIRECTION ( 'NONE',  ( 1.000000000000000000, 0.000000000000000000, 0.000000000000000000 ) ) ;
#58 = SHAPE_DEFINITION_REPRESENTATION ( #145, #81 ) ;
#59 = PERSON_AND_ORGANIZATION_ROLE ( 'creator' ) ;
#60 = VERTEX_POINT ( 'NONE', #68 ) ;
#61 = VERTEX_POINT ( 'NONE', #143 ) ;
#62 = EDGE_CURVE ( 'NONE', #70, #61, #115, .T. ) ;
#63 = DIRECTION ( 'NONE',  ( 0.000000000000000000, 0.000000000000000000, 1.000000000000000000 ) ) ;
#64 =( GEOMETRIC_REPRESENTATION_CONTEXT ( 3 ) GLOBAL_UNCERTAINTY_ASSIGNED_CONTEXT ( ( #108 ) ) GLOBAL_UNIT_ASSIGNED_CONTEXT ( ( #141, #34, #49 ) ) REPRESENTATION_CONTEXT ( 'NONE', 'WORKASPACE' ) );
#65 = CARTESIAN_POINT ( 'NONE',  ( 6.349999999999999645, 7.776507174585692163E-16, 3.000000000000000000 ) ) ;
#66 = APPROVAL_ROLE ( '' ) ;
#67 = EDGE_CURVE ( 'NONE', #149, #61, #28, .T. ) ;
#68 = CARTESIAN_POINT ( 'NONE',  ( 9.202538102826278847E-13, 0.000000000000000000, 2.995967748374184225 ) ) ;
#69 = ORIENTED_EDGE ( 'NONE', *, *, #172, .T. ) ;
#70 = VERTEX_POINT ( 'NONE', #78 ) ;
#71 = COORDINATED_UNIVERSAL_TIME_OFFSET ( 2, 0, .AHEAD. ) ;
#72 = CARTESIAN_POINT ( 'NONE',  ( 0.000000000000000000, 0.000000000000000000, 0.000000000000000000 ) ) ;
#73 = CALENDAR_DATE ( 2021, 25, 2 ) ;
#74 = VECTOR ( 'NONE', #107, 1000.000000000000000 ) ;
#75 = DIRECTION ( 'NONE',  ( -0.000000000000000000, -0.000000000000000000, -1.000000000000000000 ) ) ;
#76 = CC_DESIGN_APPROVAL ( #151, ( #136 ) ) ;
#77 = DIRECTION ( 'NONE',  ( 1.000000000000000000, 0.000000000000000000, 0.000000000000000000 ) ) ;
#78 = CARTESIAN_POINT ( 'NONE',  ( 6.349999999999999645, 7.776507174585692163E-16, 0.000000000000000000 ) ) ;
#79 = CALENDAR_DATE ( 2021, 25, 2 ) ;
#80 = CC_DESIGN_PERSON_AND_ORGANIZATION_ASSIGNMENT ( #89, #112, ( #168 ) ) ;
#81 = ADVANCED_BREP_SHAPE_REPRESENTATION ( '010-0150E_N-BK7_PCV_window', ( #134, #27 ), #64 ) ;
#82 = FACE_OUTER_BOUND ( 'NONE', #106, .T. ) ;
#83 = DATE_TIME_ROLE ( 'classification_date' ) ;
#84 = CALENDAR_DATE ( 2021, 25, 2 ) ;
#85 = CARTESIAN_POINT ( 'NONE',  ( 6.140921104957897114E-13, 0.000000000000000000, 5002.995967748373914 ) ) ;
#86 = CIRCLE ( 'NONE', #198, 5000.000000000000000 ) ;
#87 = APPLICATION_CONTEXT ( 'configuration controlled 3d designs of mechanical parts and assemblies' ) ;
#88 = CARTESIAN_POINT ( 'NONE',  ( 0.000000000000000000, 0.000000000000000000, 3.000000000000000000 ) ) ;
#89 = PERSON_AND_ORGANIZATION ( #154, #54 ) ;
#90 = APPROVAL ( #7, 'UNSPECIFIED' ) ;
#91 = EDGE_LOOP ( 'NONE', ( #38, #177, #165, #163 ) ) ;
#92 = PERSON_AND_ORGANIZATION_ROLE ( 'classification_officer' ) ;
#93 = DIRECTION ( 'NONE',  ( -0.000000000000000000, -0.000000000000000000, -1.000000000000000000 ) ) ;
#94 = DIRECTION ( 'NONE',  ( -0.000000000000000000, -0.000000000000000000, -1.000000000000000000 ) ) ;
#95 = APPROVAL_DATE_TIME ( #36, #151 ) ;
#96 = COORDINATED_UNIVERSAL_TIME_OFFSET ( 2, 0, .AHEAD. ) ;
#97 = AXIS2_PLACEMENT_3D ( 'NONE', #16, #94, #18 ) ;
#98 = DIRECTION ( 'NONE',  ( 1.000000000000000000, 0.000000000000000000, 0.000000000000000000 ) ) ;
#99 = SPHERICAL_SURFACE ( 'NONE', #173, 5000.000000000000000 ) ;
#100 = PERSON_AND_ORGANIZATION ( #154, #54 ) ;
#101 = CIRCLE ( 'NONE', #13, 5000.000000000000000 ) ;
#102 = DIRECTION ( 'NONE',  ( -1.000000000000000000, 0.000000000000000000, 0.000000000000000000 ) ) ;
#103 = CIRCLE ( 'NONE', #21, 6.349999999999999645 ) ;
#104 = EDGE_LOOP ( 'NONE', ( #24, #69, #41, #25 ) ) ;
#105 = ADVANCED_FACE ( 'NONE', ( #47 ), #45, .T. ) ;
#106 = EDGE_LOOP ( 'NONE', ( #111, #130, #176 ) ) ;
#107 = DIRECTION ( 'NONE',  ( -0.000000000000000000, -0.000000000000000000, -1.000000000000000000 ) ) ;
#108 = UNCERTAINTY_MEASURE_WITH_UNIT (LENGTH_MEASURE( 1.000000000000000082E-05 ), #141, 'distance_accuracy_value', 'NONE');
#109 = PERSON_AND_ORGANIZATION_ROLE ( 'creator' ) ;
#110 = APPLICATION_PROTOCOL_DEFINITION ( 'international standard', 'config_control_design', 1994, #87 ) ;
#111 = ORIENTED_EDGE ( 'NONE', *, *, #164, .F. ) ;
#112 = PERSON_AND_ORGANIZATION_ROLE ( 'design_supplier' ) ;
#113 = CC_DESIGN_DATE_AND_TIME_ASSIGNMENT ( #169, #33, ( #136 ) ) ;
#114 = EDGE_LOOP ( 'NONE', ( #147, #127, #161 ) ) ;
#115 = CIRCLE ( 'NONE', #31, 6.349999999999999645 ) ;
#116 = CARTESIAN_POINT ( 'NONE',  ( 6.349999999884402335, 7.776507174514910632E-16, 3.000000000000113687 ) ) ;
#117 = EDGE_CURVE ( 'NONE', #191, #149, #48, .T. ) ;
#118 = LOCAL_TIME ( 10, 26, 18.00000000000000000, #96 ) ;
#119 = MECHANICAL_CONTEXT ( 'NONE', #2, 'mechanical' ) ;
#120 = CALENDAR_DATE ( 2021, 25, 2 ) ;
#121 = APPROVAL_PERSON_ORGANIZATION ( #148, #90, #10 ) ;
#122 = CC_DESIGN_PERSON_AND_ORGANIZATION_ASSIGNMENT ( #100, #174, ( #188 ) ) ;
#123 = COORDINATED_UNIVERSAL_TIME_OFFSET ( 2, 0, .AHEAD. ) ;
#124 = SPHERICAL_SURFACE ( 'NONE', #40, 5000.000000000000000 ) ;
#125 = DATE_AND_TIME ( #12, #138 ) ;
#126 = PERSON_AND_ORGANIZATION ( #154, #54 ) ;
#127 = ORIENTED_EDGE ( 'NONE', *, *, #117, .F. ) ;
#128 = ORIENTED_EDGE ( 'NONE', *, *, #179, .F. ) ;
#129 = CC_DESIGN_SECURITY_CLASSIFICATION ( #166, ( #168 ) ) ;
#130 = ORIENTED_EDGE ( 'NONE', *, *, #8, .T. ) ;
#131 = VECTOR ( 'NONE', #93, 1000.000000000000000 ) ;
#132 = DIRECTION ( 'NONE',  ( 0.000000000000000000, 0.000000000000000000, 1.000000000000000000 ) ) ;
#133 = CARTESIAN_POINT ( 'NONE',  ( -6.349999999883173984, 0.000000000000000000, 3.000000000000113687 ) ) ;
#134 = MANIFOLD_SOLID_BREP ( 'Cut-Revolve1', #170 ) ;
#135 = DIRECTION ( 'NONE',  ( 1.000000000000000000, 0.000000000000000000, 0.000000000000000000 ) ) ;
#136 = PRODUCT_DEFINITION ( 'UNKNOWN', '', #168, #153 ) ;
#137 = DIRECTION ( 'NONE',  ( -0.000000000000000000, -0.000000000000000000, -1.000000000000000000 ) ) ;
#138 = LOCAL_TIME ( 10, 26, 18.00000000000000000, #71 ) ;
#139 = AXIS2_PLACEMENT_3D ( 'NONE', #199, #75, #135 ) ;
#140 = LOCAL_TIME ( 10, 26, 18.00000000000000000, #190 ) ;
#141 =( LENGTH_UNIT ( ) NAMED_UNIT ( * ) SI_UNIT ( .MILLI., .METRE. ) );
#142 = EDGE_CURVE ( 'NONE', #191, #60, #101, .T. ) ;
#143 = CARTESIAN_POINT ( 'NONE',  ( -6.349999999999999645, 0.000000000000000000, 0.000000000000000000 ) ) ;
#144 = PERSON_AND_ORGANIZATION ( #154, #54 ) ;
#145 = PRODUCT_DEFINITION_SHAPE ( 'NONE', 'NONE',  #136 ) ;
#146 = CARTESIAN_POINT ( 'NONE',  ( 0.000000000000000000, 0.000000000000000000, 0.000000000000000000 ) ) ;
#147 = ORIENTED_EDGE ( 'NONE', *, *, #8, .F. ) ;
#148 = PERSON_AND_ORGANIZATION ( #154, #54 ) ;
#149 = VERTEX_POINT ( 'NONE', #133 ) ;
#150 = CARTESIAN_POINT ( 'NONE',  ( 6.140921104957897114E-13, 0.000000000000000000, 3.000000000000113687 ) ) ;
#151 = APPROVAL ( #4, 'UNSPECIFIED' ) ;
#152 = DIRECTION ( 'NONE',  ( 0.000000000000000000, 0.000000000000000000, 1.000000000000000000 ) ) ;
#153 = DESIGN_CONTEXT ( 'detailed design', #87, 'design' ) ;
#154 = PERSON ( 'UNSPECIFIED', 'UNSPECIFIED', 'UNSPECIFIED', ('UNSPECIFIED'), ('UNSPECIFIED'), ('UNSPECIFIED') ) ;
#155 = CC_DESIGN_APPROVAL ( #90, ( #166 ) ) ;
#156 = COORDINATED_UNIVERSAL_TIME_OFFSET ( 2, 0, .AHEAD. ) ;
#157 = CC_DESIGN_PERSON_AND_ORGANIZATION_ASSIGNMENT ( #144, #92, ( #166 ) ) ;
#158 = AXIS2_PLACEMENT_3D ( 'NONE', #150, #137, #14 ) ;
#159 = CARTESIAN_POINT ( 'NONE',  ( 6.140921104957897114E-13, 0.000000000000000000, 5002.995967748373914 ) ) ;
#160 = APPROVAL_PERSON_ORGANIZATION ( #50, #30, #5 ) ;
#161 = ORIENTED_EDGE ( 'NONE', *, *, #142, .T. ) ;
#162 = SECURITY_CLASSIFICATION_LEVEL ( 'unclassified' ) ;
#163 = ORIENTED_EDGE ( 'NONE', *, *, #179, .T. ) ;
#164 = EDGE_CURVE ( 'NONE', #149, #191, #183, .T. ) ;
#165 = ORIENTED_EDGE ( 'NONE', *, *, #67, .T. ) ;
#166 = SECURITY_CLASSIFICATION ( '', '', #162 ) ;
#167 = FACE_OUTER_BOUND ( 'NONE', #114, .T. ) ;
#168 = PRODUCT_DEFINITION_FORMATION_WITH_SPECIFIED_SOURCE ( 'ANY', '', #188, .NOT_KNOWN. ) ;
#169 = DATE_AND_TIME ( #79, #118 ) ;
#170 = CLOSED_SHELL ( 'NONE', ( #46, #22, #105, #17, #200 ) ) ;
#171 = APPROVAL_STATUS ( 'not_yet_approved' ) ;
#172 = EDGE_CURVE ( 'NONE', #191, #70, #184, .T. ) ;
#173 = AXIS2_PLACEMENT_3D ( 'NONE', #187, #201, #98 ) ;
#174 = PERSON_AND_ORGANIZATION_ROLE ( 'design_owner' ) ;
#175 = DIRECTION ( 'NONE',  ( 1.000000000000000000, 0.000000000000000000, -0.000000000000000000 ) ) ;
#176 = ORIENTED_EDGE ( 'NONE', *, *, #142, .F. ) ;
#177 = ORIENTED_EDGE ( 'NONE', *, *, #117, .T. ) ;
#178 = APPROVAL_DATE_TIME ( #181, #90 ) ;
#179 = EDGE_CURVE ( 'NONE', #61, #70, #103, .T. ) ;
#180 = DIRECTION ( 'NONE',  ( 1.000000000000000000, 1.224646799147353207E-16, 0.000000000000000000 ) ) ;
#181 = DATE_AND_TIME ( #73, #140 ) ;
#182 = DIRECTION ( 'NONE',  ( 1.000000000000000000, 0.000000000000000000, 0.000000000000000000 ) ) ;
#183 = CIRCLE ( 'NONE', #139, 6.349999999883787716 ) ;
#184 = LINE ( 'NONE', #65, #74 ) ;
#185 = AXIS2_PLACEMENT_3D ( 'NONE', #72, #132, #175 ) ;
#186 = CC_DESIGN_PERSON_AND_ORGANIZATION_ASSIGNMENT ( #19, #109, ( #136 ) ) ;
#187 = CARTESIAN_POINT ( 'NONE',  ( 6.140921104957897114E-13, 0.000000000000000000, 5002.995967748373914 ) ) ;
#188 = PRODUCT ( '010-0150E_N-BK7_PCV_window', '010-0150E_N-BK7_PCV_window', '', ( #119 ) ) ;
#189 = DIRECTION ( 'NONE',  ( 0.000000000000000000, -1.000000000000000000, -0.000000000000000000 ) ) ;
#190 = COORDINATED_UNIVERSAL_TIME_OFFSET ( 2, 0, .AHEAD. ) ;
#191 = VERTEX_POINT ( 'NONE', #116 ) ;
#192 = ORIENTED_EDGE ( 'NONE', *, *, #62, .F. ) ;
#193 = LOCAL_TIME ( 10, 26, 18.00000000000000000, #123 ) ;
#194 = CC_DESIGN_DATE_AND_TIME_ASSIGNMENT ( #125, #83, ( #166 ) ) ;
#195 = FACE_OUTER_BOUND ( 'NONE', #23, .T. ) ;
#196 = CARTESIAN_POINT ( 'NONE',  ( -6.349999999999999645, 0.000000000000000000, 3.000000000000000000 ) ) ;
#197 = CARTESIAN_POINT ( 'NONE',  ( 6.140921104957897114E-13, 0.000000000000000000, 5002.995967748373914 ) ) ;
#198 = AXIS2_PLACEMENT_3D ( 'NONE', #159, #11, #180 ) ;
#199 = CARTESIAN_POINT ( 'NONE',  ( 6.140921104957897114E-13, 0.000000000000000000, 3.000000000000113687 ) ) ;
#200 = ADVANCED_FACE ( 'NONE', ( #167 ), #99, .F. ) ;
#201 = DIRECTION ( 'NONE',  ( 0.000000000000000000, -1.000000000000000000, -0.000000000000000000 ) ) ;
ENDSEC;
END-ISO-10303-21;
