ISO-10303-21;
HEADER;
FILE_DESCRIPTION (( 'STEP AP203' ),
    '1' );
FILE_NAME ('010-0140T6_N-BK7_PCV_window.STEP',
    '2021-02-25T09:31:28',
    ( '' ),
    ( '' ),
    'SwSTEP 2.0',
    'SolidWorks 2019',
    '' );
FILE_SCHEMA (( 'CONFIG_CONTROL_DESIGN' ));
ENDSEC;

DATA;
#1 = DIRECTION ( 'NONE',  ( -0.000000000000000000, -0.000000000000000000, -1.000000000000000000 ) ) ;
#2 = APPLICATION_CONTEXT ( 'configuration controlled 3d designs of mechanical parts and assemblies' ) ;
#3 = PERSON_AND_ORGANIZATION_ROLE ( 'creator' ) ;
#4 = EDGE_CURVE ( 'NONE', #149, #183, #79, .T. ) ;
#5 = CIRCLE ( 'NONE', #20, 6.349999999883787716 ) ;
#6 = PERSON_AND_ORGANIZATION ( #133, #165 ) ;
#7 = AXIS2_PLACEMENT_3D ( 'NONE', #186, #118, #105 ) ;
#8 = VERTEX_POINT ( 'NONE', #41 ) ;
#9 = FACE_OUTER_BOUND ( 'NONE', #116, .T. ) ;
#10 = DIRECTION ( 'NONE',  ( 0.000000000000000000, 1.000000000000000000, -0.000000000000000000 ) ) ;
#11 = DIRECTION ( 'NONE',  ( 1.000000000000000000, 0.000000000000000000, 0.000000000000000000 ) ) ;
#12 = PLANE ( 'NONE',  #66 ) ;
#13 = ADVANCED_FACE ( 'NONE', ( #26 ), #185, .F. ) ;
#14 = CC_DESIGN_APPROVAL ( #141, ( #65 ) ) ;
#15 = DATE_AND_TIME ( #126, #48 ) ;
#16 = APPROVAL_DATE_TIME ( #45, #34 ) ;
#17 = CALENDAR_DATE ( 2021, 25, 2 ) ;
#18 = UNCERTAINTY_MEASURE_WITH_UNIT (LENGTH_MEASURE( 1.000000000000000082E-05 ), #123, 'distance_accuracy_value', 'NONE');
#19 = AXIS2_PLACEMENT_3D ( 'NONE', #102, #24, #182 ) ;
#20 = AXIS2_PLACEMENT_3D ( 'NONE', #51, #87, #11 ) ;
#21 = CARTESIAN_POINT ( 'NONE',  ( 4.917941054394248113E-13, 0.000000000000000000, 4005.994959684324385 ) ) ;
#22 = APPROVAL_PERSON_ORGANIZATION ( #31, #40, #47 ) ;
#23 = EDGE_LOOP ( 'NONE', ( #49, #147, #132, #98 ) ) ;
#24 = DIRECTION ( 'NONE',  ( 1.224646799147353207E-16, -1.000000000000000000, 0.000000000000000000 ) ) ;
#25 = PRODUCT_RELATED_PRODUCT_CATEGORY ( 'detail', '', ( #164 ) ) ;
#26 = FACE_OUTER_BOUND ( 'NONE', #35, .T. ) ;
#27 = EDGE_CURVE ( 'NONE', #177, #183, #88, .T. ) ;
#28 = CARTESIAN_POINT ( 'NONE',  ( -6.349999999999999645, 0.000000000000000000, 0.000000000000000000 ) ) ;
#29 = AXIS2_PLACEMENT_3D ( 'NONE', #143, #10, #153 ) ;
#30 = APPROVAL_ROLE ( '' ) ;
#31 = PERSON_AND_ORGANIZATION ( #133, #165 ) ;
#32 = DATE_AND_TIME ( #158, #173 ) ;
#33 = VECTOR ( 'NONE', #1, 1000.000000000000000 ) ;
#34 = APPROVAL ( #169, 'UNSPECIFIED' ) ;
#35 = EDGE_LOOP ( 'NONE', ( #81, #150, #193 ) ) ;
#36 = ORIENTED_EDGE ( 'NONE', *, *, #46, .F. ) ;
#37 = SPHERICAL_SURFACE ( 'NONE', #161, 4000.000000000000000 ) ;
#38 = DIRECTION ( 'NONE',  ( 0.000000000000000000, -1.000000000000000000, -0.000000000000000000 ) ) ;
#39 = LOCAL_TIME ( 11, 31, 28.00000000000000000, #124 ) ;
#40 = APPROVAL ( #145, 'UNSPECIFIED' ) ;
#41 = CARTESIAN_POINT ( 'NONE',  ( -6.349999999883296553, 0.000000000000000000, 5.999999999999783284 ) ) ;
#42 = CIRCLE ( 'NONE', #29, 4000.000000000000000 ) ;
#43 = CYLINDRICAL_SURFACE ( 'NONE', #7, 6.349999999999999645 ) ;
#44 = APPLICATION_PROTOCOL_DEFINITION ( 'international standard', 'config_control_design', 1994, #2 ) ;
#45 = DATE_AND_TIME ( #187, #134 ) ;
#46 = EDGE_CURVE ( 'NONE', #8, #142, #189, .T. ) ;
#47 = APPROVAL_ROLE ( '' ) ;
#48 = LOCAL_TIME ( 11, 31, 28.00000000000000000, #128 ) ;
#49 = ORIENTED_EDGE ( 'NONE', *, *, #27, .F. ) ;
#50 = CC_DESIGN_PERSON_AND_ORGANIZATION_ASSIGNMENT ( #96, #77, ( #65 ) ) ;
#51 = CARTESIAN_POINT ( 'NONE',  ( 4.917941054394248113E-13, 0.000000000000000000, 5.999999999999783284 ) ) ;
#52 = EDGE_CURVE ( 'NONE', #8, #177, #5, .T. ) ;
#53 = CARTESIAN_POINT ( 'NONE',  ( -6.349999999999999645, 0.000000000000000000, 6.000000000000000000 ) ) ;
#54 = DIRECTION ( 'NONE',  ( -0.000000000000000000, -0.000000000000000000, -1.000000000000000000 ) ) ;
#55 = APPROVAL_PERSON_ORGANIZATION ( #89, #34, #30 ) ;
#56 = CARTESIAN_POINT ( 'NONE',  ( 6.349999999884279767, 7.776507174514834704E-16, 5.999999999999783284 ) ) ;
#57 = AXIS2_PLACEMENT_3D ( 'NONE', #140, #198, #152 ) ;
#58 = ORIENTED_EDGE ( 'NONE', *, *, #194, .F. ) ;
#59 = EDGE_CURVE ( 'NONE', #177, #8, #90, .T. ) ;
#60 = APPROVAL_ROLE ( '' ) ;
#61 = CARTESIAN_POINT ( 'NONE',  ( 0.000000000000000000, 0.000000000000000000, 0.000000000000000000 ) ) ;
#62 = CC_DESIGN_PERSON_AND_ORGANIZATION_ASSIGNMENT ( #112, #94, ( #82 ) ) ;
#63 = PERSON_AND_ORGANIZATION ( #133, #165 ) ;
#64 = ADVANCED_FACE ( 'NONE', ( #122 ), #43, .T. ) ;
#65 = SECURITY_CLASSIFICATION ( '', '', #172 ) ;
#66 = AXIS2_PLACEMENT_3D ( 'NONE', #68, #139, #138 ) ;
#67 = ORIENTED_EDGE ( 'NONE', *, *, #4, .F. ) ;
#68 = CARTESIAN_POINT ( 'NONE',  ( 0.000000000000000000, 0.000000000000000000, 0.000000000000000000 ) ) ;
#69 = CYLINDRICAL_SURFACE ( 'NONE', #95, 6.349999999999999645 ) ;
#70 = DIRECTION ( 'NONE',  ( -0.000000000000000000, -0.000000000000000000, -1.000000000000000000 ) ) ;
#71 = DIRECTION ( 'NONE',  ( 0.000000000000000000, -1.000000000000000000, -0.000000000000000000 ) ) ;
#72 = CARTESIAN_POINT ( 'NONE',  ( 0.000000000000000000, 0.000000000000000000, 0.000000000000000000 ) ) ;
#73 =( GEOMETRIC_REPRESENTATION_CONTEXT ( 3 ) GLOBAL_UNCERTAINTY_ASSIGNED_CONTEXT ( ( #18 ) ) GLOBAL_UNIT_ASSIGNED_CONTEXT ( ( #123, #170, #74 ) ) REPRESENTATION_CONTEXT ( 'NONE', 'WORKASPACE' ) );
#74 =( NAMED_UNIT ( * ) SI_UNIT ( $, .STERADIAN. ) SOLID_ANGLE_UNIT ( ) );
#75 = CC_DESIGN_APPROVAL ( #40, ( #82 ) ) ;
#76 = COORDINATED_UNIVERSAL_TIME_OFFSET ( 2, 0, .AHEAD. ) ;
#77 = PERSON_AND_ORGANIZATION_ROLE ( 'classification_officer' ) ;
#78 = DATE_TIME_ROLE ( 'creation_date' ) ;
#79 = CIRCLE ( 'NONE', #179, 6.349999999999999645 ) ;
#80 = APPROVAL_STATUS ( 'not_yet_approved' ) ;
#81 = ORIENTED_EDGE ( 'NONE', *, *, #52, .F. ) ;
#82 = PRODUCT_DEFINITION_FORMATION_WITH_SPECIFIED_SOURCE ( 'ANY', '', #164, .NOT_KNOWN. ) ;
#83 = CIRCLE ( 'NONE', #121, 6.349999999999999645 ) ;
#84 = FACE_OUTER_BOUND ( 'NONE', #168, .T. ) ;
#85 = CC_DESIGN_APPROVAL ( #34, ( #100 ) ) ;
#86 = CARTESIAN_POINT ( 'NONE',  ( 0.000000000000000000, 0.000000000000000000, 0.000000000000000000 ) ) ;
#87 = DIRECTION ( 'NONE',  ( -0.000000000000000000, -0.000000000000000000, -1.000000000000000000 ) ) ;
#88 = LINE ( 'NONE', #181, #160 ) ;
#89 = PERSON_AND_ORGANIZATION ( #133, #165 ) ;
#90 = CIRCLE ( 'NONE', #57, 6.349999999883787716 ) ;
#91 = APPLICATION_PROTOCOL_DEFINITION ( 'international standard', 'config_control_design', 1994, #109 ) ;
#92 = MECHANICAL_CONTEXT ( 'NONE', #2, 'mechanical' ) ;
#93 = DATE_TIME_ROLE ( 'classification_date' ) ;
#94 = PERSON_AND_ORGANIZATION_ROLE ( 'design_supplier' ) ;
#95 = AXIS2_PLACEMENT_3D ( 'NONE', #199, #54, #151 ) ;
#96 = PERSON_AND_ORGANIZATION ( #133, #165 ) ;
#97 = DESIGN_CONTEXT ( 'detailed design', #109, 'design' ) ;
#98 = ORIENTED_EDGE ( 'NONE', *, *, #4, .T. ) ;
#99 = MANIFOLD_SOLID_BREP ( 'Cut-Revolve1', #195 ) ;
#100 = PRODUCT_DEFINITION ( 'UNKNOWN', '', #82, #97 ) ;
#101 = DIRECTION ( 'NONE',  ( 1.000000000000000000, 0.000000000000000000, 0.000000000000000000 ) ) ;
#102 = CARTESIAN_POINT ( 'NONE',  ( 4.917941054394248113E-13, 0.000000000000000000, 4005.994959684324385 ) ) ;
#103 = LOCAL_TIME ( 11, 31, 28.00000000000000000, #76 ) ;
#104 = DIRECTION ( 'NONE',  ( 0.000000000000000000, 0.000000000000000000, 1.000000000000000000 ) ) ;
#105 = DIRECTION ( 'NONE',  ( -1.000000000000000000, 0.000000000000000000, 0.000000000000000000 ) ) ;
#106 = CARTESIAN_POINT ( 'NONE',  ( 7.367234652688955115E-13, 0.000000000000000000, 5.994959684324285831 ) ) ;
#107 = PERSON_AND_ORGANIZATION_ROLE ( 'design_owner' ) ;
#108 = CALENDAR_DATE ( 2021, 25, 2 ) ;
#109 = APPLICATION_CONTEXT ( 'configuration controlled 3d designs of mechanical parts and assemblies' ) ;
#110 = APPROVAL_DATE_TIME ( #171, #141 ) ;
#111 = COORDINATED_UNIVERSAL_TIME_OFFSET ( 2, 0, .AHEAD. ) ;
#112 = PERSON_AND_ORGANIZATION ( #133, #165 ) ;
#113 = ORIENTED_EDGE ( 'NONE', *, *, #184, .F. ) ;
#114 = ORIENTED_EDGE ( 'NONE', *, *, #27, .T. ) ;
#115 = CC_DESIGN_DATE_AND_TIME_ASSIGNMENT ( #32, #78, ( #100 ) ) ;
#116 = EDGE_LOOP ( 'NONE', ( #190, #114, #178, #58 ) ) ;
#117 = FACE_OUTER_BOUND ( 'NONE', #135, .T. ) ;
#118 = DIRECTION ( 'NONE',  ( -0.000000000000000000, -0.000000000000000000, -1.000000000000000000 ) ) ;
#119 = DIRECTION ( 'NONE',  ( 1.000000000000000000, 0.000000000000000000, 0.000000000000000000 ) ) ;
#120 = CARTESIAN_POINT ( 'NONE',  ( 6.349999999999999645, 7.776507174585692163E-16, 0.000000000000000000 ) ) ;
#121 = AXIS2_PLACEMENT_3D ( 'NONE', #72, #196, #101 ) ;
#122 = FACE_OUTER_BOUND ( 'NONE', #23, .T. ) ;
#123 =( LENGTH_UNIT ( ) NAMED_UNIT ( * ) SI_UNIT ( .MILLI., .METRE. ) );
#124 = COORDINATED_UNIVERSAL_TIME_OFFSET ( 2, 0, .AHEAD. ) ;
#125 = PERSON_AND_ORGANIZATION ( #133, #165 ) ;
#126 = CALENDAR_DATE ( 2021, 25, 2 ) ;
#127 = ADVANCED_FACE ( 'NONE', ( #117 ), #37, .F. ) ;
#128 = COORDINATED_UNIVERSAL_TIME_OFFSET ( 2, 0, .AHEAD. ) ;
#129 = AXIS2_PLACEMENT_3D ( 'NONE', #163, #38, #119 ) ;
#130 = CC_DESIGN_PERSON_AND_ORGANIZATION_ASSIGNMENT ( #63, #3, ( #100 ) ) ;
#131 = PERSON_AND_ORGANIZATION_ROLE ( 'creator' ) ;
#132 = ORIENTED_EDGE ( 'NONE', *, *, #194, .T. ) ;
#133 = PERSON ( 'UNSPECIFIED', 'UNSPECIFIED', 'UNSPECIFIED', ('UNSPECIFIED'), ('UNSPECIFIED'), ('UNSPECIFIED') ) ;
#134 = LOCAL_TIME ( 11, 31, 28.00000000000000000, #154 ) ;
#135 = EDGE_LOOP ( 'NONE', ( #36, #180, #192 ) ) ;
#136 = EDGE_CURVE ( 'NONE', #177, #142, #42, .T. ) ;
#137 = PRODUCT_DEFINITION_SHAPE ( 'NONE', 'NONE',  #100 ) ;
#138 = DIRECTION ( 'NONE',  ( 1.000000000000000000, 0.000000000000000000, -0.000000000000000000 ) ) ;
#139 = DIRECTION ( 'NONE',  ( 0.000000000000000000, 0.000000000000000000, 1.000000000000000000 ) ) ;
#140 = CARTESIAN_POINT ( 'NONE',  ( 4.917941054394248113E-13, 0.000000000000000000, 5.999999999999783284 ) ) ;
#141 = APPROVAL ( #80, 'UNSPECIFIED' ) ;
#142 = VERTEX_POINT ( 'NONE', #106 ) ;
#143 = CARTESIAN_POINT ( 'NONE',  ( 4.917941054394248113E-13, 0.000000000000000000, 4005.994959684324385 ) ) ;
#144 = DIRECTION ( 'NONE',  ( 1.000000000000000000, 0.000000000000000000, 0.000000000000000000 ) ) ;
#145 = APPROVAL_STATUS ( 'not_yet_approved' ) ;
#146 = APPROVAL_DATE_TIME ( #156, #40 ) ;
#147 = ORIENTED_EDGE ( 'NONE', *, *, #59, .T. ) ;
#148 = AXIS2_PLACEMENT_3D ( 'NONE', #61, #155, #144 ) ;
#149 = VERTEX_POINT ( 'NONE', #28 ) ;
#150 = ORIENTED_EDGE ( 'NONE', *, *, #46, .T. ) ;
#151 = DIRECTION ( 'NONE',  ( -1.000000000000000000, 0.000000000000000000, 0.000000000000000000 ) ) ;
#152 = DIRECTION ( 'NONE',  ( 1.000000000000000000, 0.000000000000000000, 0.000000000000000000 ) ) ;
#153 = DIRECTION ( 'NONE',  ( 0.000000000000000000, 0.000000000000000000, 1.000000000000000000 ) ) ;
#154 = COORDINATED_UNIVERSAL_TIME_OFFSET ( 2, 0, .AHEAD. ) ;
#155 = DIRECTION ( 'NONE',  ( 0.000000000000000000, 0.000000000000000000, 1.000000000000000000 ) ) ;
#156 = DATE_AND_TIME ( #17, #39 ) ;
#157 = CC_DESIGN_SECURITY_CLASSIFICATION ( #65, ( #82 ) ) ;
#158 = CALENDAR_DATE ( 2021, 25, 2 ) ;
#159 = ADVANCED_FACE ( 'NONE', ( #9 ), #69, .T. ) ;
#160 = VECTOR ( 'NONE', #70, 1000.000000000000000 ) ;
#161 = AXIS2_PLACEMENT_3D ( 'NONE', #21, #71, #200 ) ;
#162 = CC_DESIGN_DATE_AND_TIME_ASSIGNMENT ( #15, #93, ( #65 ) ) ;
#163 = CARTESIAN_POINT ( 'NONE',  ( 4.917941054394248113E-13, 0.000000000000000000, 4005.994959684324385 ) ) ;
#164 = PRODUCT ( '010-0140T6_N-BK7_PCV_window', '010-0140T6_N-BK7_PCV_window', '', ( #92 ) ) ;
#165 = ORGANIZATION ( 'UNSPECIFIED', 'UNSPECIFIED', '' ) ;
#166 = DIRECTION ( 'NONE',  ( 1.000000000000000000, 0.000000000000000000, 0.000000000000000000 ) ) ;
#167 = ADVANCED_FACE ( 'NONE', ( #84 ), #12, .F. ) ;
#168 = EDGE_LOOP ( 'NONE', ( #67, #113 ) ) ;
#169 = APPROVAL_STATUS ( 'not_yet_approved' ) ;
#170 =( NAMED_UNIT ( * ) PLANE_ANGLE_UNIT ( ) SI_UNIT ( $, .RADIAN. ) );
#171 = DATE_AND_TIME ( #108, #103 ) ;
#172 = SECURITY_CLASSIFICATION_LEVEL ( 'unclassified' ) ;
#173 = LOCAL_TIME ( 11, 31, 28.00000000000000000, #111 ) ;
#174 = CC_DESIGN_PERSON_AND_ORGANIZATION_ASSIGNMENT ( #6, #131, ( #82 ) ) ;
#175 = PERSON_AND_ORGANIZATION ( #133, #165 ) ;
#176 = CC_DESIGN_PERSON_AND_ORGANIZATION_ASSIGNMENT ( #125, #107, ( #164 ) ) ;
#177 = VERTEX_POINT ( 'NONE', #56 ) ;
#178 = ORIENTED_EDGE ( 'NONE', *, *, #184, .T. ) ;
#179 = AXIS2_PLACEMENT_3D ( 'NONE', #86, #104, #166 ) ;
#180 = ORIENTED_EDGE ( 'NONE', *, *, #59, .F. ) ;
#181 = CARTESIAN_POINT ( 'NONE',  ( 6.349999999999999645, 7.776507174585692163E-16, 6.000000000000000000 ) ) ;
#182 = DIRECTION ( 'NONE',  ( 1.000000000000000000, 1.224646799147353207E-16, 0.000000000000000000 ) ) ;
#183 = VERTEX_POINT ( 'NONE', #120 ) ;
#184 = EDGE_CURVE ( 'NONE', #183, #149, #83, .T. ) ;
#185 = SPHERICAL_SURFACE ( 'NONE', #129, 4000.000000000000000 ) ;
#186 = CARTESIAN_POINT ( 'NONE',  ( 0.000000000000000000, 0.000000000000000000, 6.000000000000000000 ) ) ;
#187 = CALENDAR_DATE ( 2021, 25, 2 ) ;
#188 = SHAPE_DEFINITION_REPRESENTATION ( #137, #201 ) ;
#189 = CIRCLE ( 'NONE', #19, 4000.000000000000000 ) ;
#190 = ORIENTED_EDGE ( 'NONE', *, *, #52, .T. ) ;
#191 = APPROVAL_PERSON_ORGANIZATION ( #175, #141, #60 ) ;
#192 = ORIENTED_EDGE ( 'NONE', *, *, #136, .T. ) ;
#193 = ORIENTED_EDGE ( 'NONE', *, *, #136, .F. ) ;
#194 = EDGE_CURVE ( 'NONE', #8, #149, #197, .T. ) ;
#195 = CLOSED_SHELL ( 'NONE', ( #13, #159, #64, #167, #127 ) ) ;
#196 = DIRECTION ( 'NONE',  ( 0.000000000000000000, 0.000000000000000000, 1.000000000000000000 ) ) ;
#197 = LINE ( 'NONE', #53, #33 ) ;
#198 = DIRECTION ( 'NONE',  ( -0.000000000000000000, -0.000000000000000000, -1.000000000000000000 ) ) ;
#199 = CARTESIAN_POINT ( 'NONE',  ( 0.000000000000000000, 0.000000000000000000, 6.000000000000000000 ) ) ;
#200 = DIRECTION ( 'NONE',  ( 1.000000000000000000, 0.000000000000000000, 0.000000000000000000 ) ) ;
#201 = ADVANCED_BREP_SHAPE_REPRESENTATION ( '010-0140T6_N-BK7_PCV_window', ( #99, #148 ), #73 ) ;
ENDSEC;
END-ISO-10303-21;
