ISO-10303-21;
HEADER;
FILE_DESCRIPTION (( 'STEP AP203' ),
    '1' );
FILE_NAME ('010-0140E_N-BK7_PCV_window.STEP',
    '2021-02-25T08:25:52',
    ( '' ),
    ( '' ),
    'SwSTEP 2.0',
    'SolidWorks 2019',
    '' );
FILE_SCHEMA (( 'CONFIG_CONTROL_DESIGN' ));
ENDSEC;

DATA;
#1 = DIRECTION ( 'NONE',  ( 1.000000000000000000, 0.000000000000000000, 0.000000000000000000 ) ) ;
#2 = APPROVAL_DATE_TIME ( #126, #23 ) ;
#3 = PERSON_AND_ORGANIZATION ( #164, #150 ) ;
#4 = AXIS2_PLACEMENT_3D ( 'NONE', #131, #84, #147 ) ;
#5 = COORDINATED_UNIVERSAL_TIME_OFFSET ( 2, 0, .AHEAD. ) ;
#6 = ADVANCED_FACE ( 'NONE', ( #88 ), #8, .T. ) ;
#7 = APPROVAL_STATUS ( 'not_yet_approved' ) ;
#8 = CYLINDRICAL_SURFACE ( 'NONE', #34, 6.349999999999999645 ) ;
#9 = ORIENTED_EDGE ( 'NONE', *, *, #192, .F. ) ;
#10 = ORIENTED_EDGE ( 'NONE', *, *, #27, .T. ) ;
#11 = AXIS2_PLACEMENT_3D ( 'NONE', #142, #176, #35 ) ;
#12 = APPLICATION_CONTEXT ( 'configuration controlled 3d designs of mechanical parts and assemblies' ) ;
#13 = PRODUCT_DEFINITION_FORMATION_WITH_SPECIFIED_SOURCE ( 'ANY', '', #148, .NOT_KNOWN. ) ;
#14 = DIRECTION ( 'NONE',  ( 0.000000000000000000, -1.000000000000000000, -0.000000000000000000 ) ) ;
#15 = CARTESIAN_POINT ( 'NONE',  ( 0.000000000000000000, 0.000000000000000000, 0.000000000000000000 ) ) ;
#16 = ADVANCED_FACE ( 'NONE', ( #64 ), #74, .F. ) ;
#17 = DIRECTION ( 'NONE',  ( 0.000000000000000000, 0.000000000000000000, 1.000000000000000000 ) ) ;
#18 = CLOSED_SHELL ( 'NONE', ( #174, #67, #6, #16, #158 ) ) ;
#19 = PERSON_AND_ORGANIZATION ( #164, #150 ) ;
#20 = PERSON_AND_ORGANIZATION ( #164, #150 ) ;
#21 = EDGE_LOOP ( 'NONE', ( #133, #91, #10, #45 ) ) ;
#22 = CC_DESIGN_DATE_AND_TIME_ASSIGNMENT ( #114, #39, ( #54 ) ) ;
#23 = APPROVAL ( #7, 'UNSPECIFIED' ) ;
#24 = APPROVAL_DATE_TIME ( #98, #115 ) ;
#25 = ORIENTED_EDGE ( 'NONE', *, *, #179, .F. ) ;
#26 = COORDINATED_UNIVERSAL_TIME_OFFSET ( 2, 0, .AHEAD. ) ;
#27 = EDGE_CURVE ( 'NONE', #122, #119, #168, .T. ) ;
#28 = ORIENTED_EDGE ( 'NONE', *, *, #161, .F. ) ;
#29 = LOCAL_TIME ( 10, 25, 52.00000000000000000, #5 ) ;
#30 = FACE_OUTER_BOUND ( 'NONE', #21, .T. ) ;
#31 = CIRCLE ( 'NONE', #184, 6.350000000163529279 ) ;
#32 = LINE ( 'NONE', #82, #134 ) ;
#33 = UNCERTAINTY_MEASURE_WITH_UNIT (LENGTH_MEASURE( 1.000000000000000082E-05 ), #167, 'distance_accuracy_value', 'NONE');
#34 = AXIS2_PLACEMENT_3D ( 'NONE', #46, #71, #104 ) ;
#35 = DIRECTION ( 'NONE',  ( 1.000000000000000000, 0.000000000000000000, 0.000000000000000000 ) ) ;
#36 = CARTESIAN_POINT ( 'NONE',  ( 7.367234652688955115E-13, 0.000000000000000000, 2.994959684324172144 ) ) ;
#37 = CC_DESIGN_DATE_AND_TIME_ASSIGNMENT ( #87, #112, ( #162 ) ) ;
#38 = AXIS2_PLACEMENT_3D ( 'NONE', #80, #201, #106 ) ;
#39 = DATE_TIME_ROLE ( 'creation_date' ) ;
#40 = PERSON_AND_ORGANIZATION ( #164, #150 ) ;
#41 = ORIENTED_EDGE ( 'NONE', *, *, #189, .F. ) ;
#42 = CALENDAR_DATE ( 2021, 25, 2 ) ;
#43 = DIRECTION ( 'NONE',  ( 1.000000000000000000, 0.000000000000000000, 0.000000000000000000 ) ) ;
#44 = EDGE_CURVE ( 'NONE', #171, #185, #96, .T. ) ;
#45 = ORIENTED_EDGE ( 'NONE', *, *, #62, .F. ) ;
#46 = CARTESIAN_POINT ( 'NONE',  ( 0.000000000000000000, 0.000000000000000000, 3.000000000000000000 ) ) ;
#47 = APPROVAL_PERSON_ORGANIZATION ( #180, #23, #194 ) ;
#48 = AXIS2_PLACEMENT_3D ( 'NONE', #15, #66, #79 ) ;
#49 = LINE ( 'NONE', #160, #86 ) ;
#50 = CIRCLE ( 'NONE', #48, 6.349999999999999645 ) ;
#51 = CC_DESIGN_PERSON_AND_ORGANIZATION_ASSIGNMENT ( #20, #89, ( #13 ) ) ;
#52 = CARTESIAN_POINT ( 'NONE',  ( 6.349999999999999645, 7.776507174585692163E-16, 0.000000000000000000 ) ) ;
#53 = FACE_OUTER_BOUND ( 'NONE', #75, .T. ) ;
#54 = PRODUCT_DEFINITION ( 'UNKNOWN', '', #13, #175 ) ;
#55 = AXIS2_PLACEMENT_3D ( 'NONE', #78, #195, #136 ) ;
#56 = SPHERICAL_SURFACE ( 'NONE', #120, 4000.000000000000000 ) ;
#57 = CALENDAR_DATE ( 2021, 25, 2 ) ;
#58 = CALENDAR_DATE ( 2021, 25, 2 ) ;
#59 = EDGE_LOOP ( 'NONE', ( #28, #9, #76 ) ) ;
#60 = DATE_AND_TIME ( #42, #166 ) ;
#61 = CARTESIAN_POINT ( 'NONE',  ( 0.000000000000000000, 0.000000000000000000, 0.000000000000000000 ) ) ;
#62 = EDGE_CURVE ( 'NONE', #171, #119, #32, .T. ) ;
#63 = LOCAL_TIME ( 10, 25, 52.00000000000000000, #117 ) ;
#64 = FACE_OUTER_BOUND ( 'NONE', #138, .T. ) ;
#65 = CYLINDRICAL_SURFACE ( 'NONE', #109, 6.349999999999999645 ) ;
#66 = DIRECTION ( 'NONE',  ( 0.000000000000000000, 0.000000000000000000, 1.000000000000000000 ) ) ;
#67 = ADVANCED_FACE ( 'NONE', ( #30 ), #65, .T. ) ;
#68 = CARTESIAN_POINT ( 'NONE',  ( 4.917941054394248113E-13, 0.000000000000000000, 4002.994959684324385 ) ) ;
#69 = APPROVAL_STATUS ( 'not_yet_approved' ) ;
#70 = APPROVAL_STATUS ( 'not_yet_approved' ) ;
#71 = DIRECTION ( 'NONE',  ( -0.000000000000000000, -0.000000000000000000, -1.000000000000000000 ) ) ;
#72 = APPLICATION_CONTEXT ( 'configuration controlled 3d designs of mechanical parts and assemblies' ) ;
#73 = PERSON_AND_ORGANIZATION_ROLE ( 'creator' ) ;
#74 = PLANE ( 'NONE',  #55 ) ;
#75 = EDGE_LOOP ( 'NONE', ( #173, #155, #41 ) ) ;
#76 = ORIENTED_EDGE ( 'NONE', *, *, #189, .T. ) ;
#77 = CC_DESIGN_APPROVAL ( #115, ( #13 ) ) ;
#78 = CARTESIAN_POINT ( 'NONE',  ( 0.000000000000000000, 0.000000000000000000, 0.000000000000000000 ) ) ;
#79 = DIRECTION ( 'NONE',  ( 1.000000000000000000, 0.000000000000000000, 0.000000000000000000 ) ) ;
#80 = CARTESIAN_POINT ( 'NONE',  ( 4.917941054394248113E-13, 0.000000000000000000, 4002.994959684324385 ) ) ;
#81 = CARTESIAN_POINT ( 'NONE',  ( 0.000000000000000000, 0.000000000000000000, 3.000000000000000000 ) ) ;
#82 = CARTESIAN_POINT ( 'NONE',  ( -6.349999999999999645, 0.000000000000000000, 3.000000000000000000 ) ) ;
#83 = MANIFOLD_SOLID_BREP ( 'Cut-Revolve1', #18 ) ;
#84 = DIRECTION ( 'NONE',  ( 0.000000000000000000, 0.000000000000000000, 1.000000000000000000 ) ) ;
#85 = PERSON_AND_ORGANIZATION_ROLE ( 'design_owner' ) ;
#86 = VECTOR ( 'NONE', #190, 1000.000000000000000 ) ;
#87 = DATE_AND_TIME ( #57, #107 ) ;
#88 = FACE_OUTER_BOUND ( 'NONE', #140, .T. ) ;
#89 = PERSON_AND_ORGANIZATION_ROLE ( 'design_supplier' ) ;
#90 = CALENDAR_DATE ( 2021, 25, 2 ) ;
#91 = ORIENTED_EDGE ( 'NONE', *, *, #179, .T. ) ;
#92 = CARTESIAN_POINT ( 'NONE',  ( 4.917941054394248113E-13, 0.000000000000000000, 4002.994959684324385 ) ) ;
#93 = CC_DESIGN_SECURITY_CLASSIFICATION ( #162, ( #13 ) ) ;
#94 = DIRECTION ( 'NONE',  ( 1.000000000000000000, 0.000000000000000000, 0.000000000000000000 ) ) ;
#95 = AXIS2_PLACEMENT_3D ( 'NONE', #68, #130, #17 ) ;
#96 = CIRCLE ( 'NONE', #11, 6.350000000163529279 ) ;
#97 = PRODUCT_DEFINITION_SHAPE ( 'NONE', 'NONE',  #54 ) ;
#98 = DATE_AND_TIME ( #172, #143 ) ;
#99 = PERSON_AND_ORGANIZATION ( #164, #150 ) ;
#100 = CC_DESIGN_PERSON_AND_ORGANIZATION_ASSIGNMENT ( #99, #73, ( #54 ) ) ;
#101 = COORDINATED_UNIVERSAL_TIME_OFFSET ( 2, 0, .AHEAD. ) ;
#102 = AXIS2_PLACEMENT_3D ( 'NONE', #157, #200, #141 ) ;
#103 = CC_DESIGN_PERSON_AND_ORGANIZATION_ASSIGNMENT ( #196, #154, ( #162 ) ) ;
#104 = DIRECTION ( 'NONE',  ( -1.000000000000000000, 0.000000000000000000, 0.000000000000000000 ) ) ;
#105 = ORIENTED_EDGE ( 'NONE', *, *, #27, .F. ) ;
#106 = DIRECTION ( 'NONE',  ( 1.000000000000000000, 0.000000000000000000, 0.000000000000000000 ) ) ;
#107 = LOCAL_TIME ( 10, 25, 52.00000000000000000, #26 ) ;
#108 = DIRECTION ( 'NONE',  ( -1.000000000000000000, 0.000000000000000000, 0.000000000000000000 ) ) ;
#109 = AXIS2_PLACEMENT_3D ( 'NONE', #81, #144, #108 ) ;
#110 = CARTESIAN_POINT ( 'NONE',  ( 6.350000000164021330, 7.776507174786561787E-16, 3.000000000000113687 ) ) ;
#111 =( NAMED_UNIT ( * ) PLANE_ANGLE_UNIT ( ) SI_UNIT ( $, .RADIAN. ) );
#112 = DATE_TIME_ROLE ( 'classification_date' ) ;
#113 = CC_DESIGN_APPROVAL ( #145, ( #54 ) ) ;
#114 = DATE_AND_TIME ( #90, #63 ) ;
#115 = APPROVAL ( #70, 'UNSPECIFIED' ) ;
#116 = PRODUCT_RELATED_PRODUCT_CATEGORY ( 'detail', '', ( #148 ) ) ;
#117 = COORDINATED_UNIVERSAL_TIME_OFFSET ( 2, 0, .AHEAD. ) ;
#118 = ORIENTED_EDGE ( 'NONE', *, *, #125, .T. ) ;
#119 = VERTEX_POINT ( 'NONE', #146 ) ;
#120 = AXIS2_PLACEMENT_3D ( 'NONE', #92, #14, #94 ) ;
#121 = CC_DESIGN_PERSON_AND_ORGANIZATION_ASSIGNMENT ( #19, #85, ( #148 ) ) ;
#122 = VERTEX_POINT ( 'NONE', #52 ) ;
#123 = DIRECTION ( 'NONE',  ( -0.000000000000000000, -0.000000000000000000, -1.000000000000000000 ) ) ;
#124 = CARTESIAN_POINT ( 'NONE',  ( -6.350000000163038116, 0.000000000000000000, 3.000000000000113687 ) ) ;
#125 = EDGE_CURVE ( 'NONE', #119, #122, #50, .T. ) ;
#126 = DATE_AND_TIME ( #58, #29 ) ;
#127 = FACE_OUTER_BOUND ( 'NONE', #59, .T. ) ;
#128 = MECHANICAL_CONTEXT ( 'NONE', #72, 'mechanical' ) ;
#129 = CIRCLE ( 'NONE', #95, 4000.000000000000000 ) ;
#130 = DIRECTION ( 'NONE',  ( 0.000000000000000000, 1.000000000000000000, -0.000000000000000000 ) ) ;
#131 = CARTESIAN_POINT ( 'NONE',  ( 0.000000000000000000, 0.000000000000000000, 0.000000000000000000 ) ) ;
#132 = COORDINATED_UNIVERSAL_TIME_OFFSET ( 2, 0, .AHEAD. ) ;
#133 = ORIENTED_EDGE ( 'NONE', *, *, #44, .T. ) ;
#134 = VECTOR ( 'NONE', #123, 1000.000000000000000 ) ;
#135 = SECURITY_CLASSIFICATION_LEVEL ( 'unclassified' ) ;
#136 = DIRECTION ( 'NONE',  ( 1.000000000000000000, 0.000000000000000000, -0.000000000000000000 ) ) ;
#137 = ORIENTED_EDGE ( 'NONE', *, *, #62, .T. ) ;
#138 = EDGE_LOOP ( 'NONE', ( #199, #105 ) ) ;
#139 = APPROVAL_PERSON_ORGANIZATION ( #3, #145, #182 ) ;
#140 = EDGE_LOOP ( 'NONE', ( #25, #197, #137, #118 ) ) ;
#141 = DIRECTION ( 'NONE',  ( 1.000000000000000000, 1.224646799147353207E-16, 0.000000000000000000 ) ) ;
#142 = CARTESIAN_POINT ( 'NONE',  ( 4.917941054394248113E-13, 0.000000000000000000, 3.000000000000113687 ) ) ;
#143 = LOCAL_TIME ( 10, 25, 52.00000000000000000, #101 ) ;
#144 = DIRECTION ( 'NONE',  ( -0.000000000000000000, -0.000000000000000000, -1.000000000000000000 ) ) ;
#145 = APPROVAL ( #69, 'UNSPECIFIED' ) ;
#146 = CARTESIAN_POINT ( 'NONE',  ( -6.349999999999999645, 0.000000000000000000, 0.000000000000000000 ) ) ;
#147 = DIRECTION ( 'NONE',  ( 1.000000000000000000, 0.000000000000000000, 0.000000000000000000 ) ) ;
#148 = PRODUCT ( '010-0140E_N-BK7_PCV_window', '010-0140E_N-BK7_PCV_window', '', ( #128 ) ) ;
#149 = APPLICATION_PROTOCOL_DEFINITION ( 'international standard', 'config_control_design', 1994, #12 ) ;
#150 = ORGANIZATION ( 'UNSPECIFIED', 'UNSPECIFIED', '' ) ;
#151 = SHAPE_DEFINITION_REPRESENTATION ( #97, #188 ) ;
#152 = APPLICATION_PROTOCOL_DEFINITION ( 'international standard', 'config_control_design', 1994, #72 ) ;
#153 = PERSON_AND_ORGANIZATION ( #164, #150 ) ;
#154 = PERSON_AND_ORGANIZATION_ROLE ( 'classification_officer' ) ;
#155 = ORIENTED_EDGE ( 'NONE', *, *, #161, .T. ) ;
#156 = CC_DESIGN_APPROVAL ( #23, ( #162 ) ) ;
#157 = CARTESIAN_POINT ( 'NONE',  ( 4.917941054394248113E-13, 0.000000000000000000, 4002.994959684324385 ) ) ;
#158 = ADVANCED_FACE ( 'NONE', ( #127 ), #56, .F. ) ;
#159 = SPHERICAL_SURFACE ( 'NONE', #38, 4000.000000000000000 ) ;
#160 = CARTESIAN_POINT ( 'NONE',  ( 6.349999999999999645, 7.776507174585692163E-16, 3.000000000000000000 ) ) ;
#161 = EDGE_CURVE ( 'NONE', #171, #186, #177, .T. ) ;
#162 = SECURITY_CLASSIFICATION ( '', '', #135 ) ;
#163 = APPROVAL_PERSON_ORGANIZATION ( #40, #115, #181 ) ;
#164 = PERSON ( 'UNSPECIFIED', 'UNSPECIFIED', 'UNSPECIFIED', ('UNSPECIFIED'), ('UNSPECIFIED'), ('UNSPECIFIED') ) ;
#165 = DIRECTION ( 'NONE',  ( -0.000000000000000000, -0.000000000000000000, -1.000000000000000000 ) ) ;
#166 = LOCAL_TIME ( 10, 25, 52.00000000000000000, #132 ) ;
#167 =( LENGTH_UNIT ( ) NAMED_UNIT ( * ) SI_UNIT ( .MILLI., .METRE. ) );
#168 = CIRCLE ( 'NONE', #191, 6.349999999999999645 ) ;
#169 = APPROVAL_DATE_TIME ( #60, #145 ) ;
#170 = PERSON_AND_ORGANIZATION_ROLE ( 'creator' ) ;
#171 = VERTEX_POINT ( 'NONE', #124 ) ;
#172 = CALENDAR_DATE ( 2021, 25, 2 ) ;
#173 = ORIENTED_EDGE ( 'NONE', *, *, #44, .F. ) ;
#174 = ADVANCED_FACE ( 'NONE', ( #53 ), #159, .F. ) ;
#175 = DESIGN_CONTEXT ( 'detailed design', #12, 'design' ) ;
#176 = DIRECTION ( 'NONE',  ( -0.000000000000000000, -0.000000000000000000, -1.000000000000000000 ) ) ;
#177 = CIRCLE ( 'NONE', #102, 4000.000000000000000 ) ;
#178 =( NAMED_UNIT ( * ) SI_UNIT ( $, .STERADIAN. ) SOLID_ANGLE_UNIT ( ) );
#179 = EDGE_CURVE ( 'NONE', #185, #122, #49, .T. ) ;
#180 = PERSON_AND_ORGANIZATION ( #164, #150 ) ;
#181 = APPROVAL_ROLE ( '' ) ;
#182 = APPROVAL_ROLE ( '' ) ;
#183 = DIRECTION ( 'NONE',  ( 0.000000000000000000, 0.000000000000000000, 1.000000000000000000 ) ) ;
#184 = AXIS2_PLACEMENT_3D ( 'NONE', #193, #165, #1 ) ;
#185 = VERTEX_POINT ( 'NONE', #110 ) ;
#186 = VERTEX_POINT ( 'NONE', #36 ) ;
#187 = CC_DESIGN_PERSON_AND_ORGANIZATION_ASSIGNMENT ( #153, #170, ( #13 ) ) ;
#188 = ADVANCED_BREP_SHAPE_REPRESENTATION ( '010-0140E_N-BK7_PCV_window', ( #83, #4 ), #198 ) ;
#189 = EDGE_CURVE ( 'NONE', #185, #186, #129, .T. ) ;
#190 = DIRECTION ( 'NONE',  ( -0.000000000000000000, -0.000000000000000000, -1.000000000000000000 ) ) ;
#191 = AXIS2_PLACEMENT_3D ( 'NONE', #61, #183, #43 ) ;
#192 = EDGE_CURVE ( 'NONE', #185, #171, #31, .T. ) ;
#193 = CARTESIAN_POINT ( 'NONE',  ( 4.917941054394248113E-13, 0.000000000000000000, 3.000000000000113687 ) ) ;
#194 = APPROVAL_ROLE ( '' ) ;
#195 = DIRECTION ( 'NONE',  ( 0.000000000000000000, 0.000000000000000000, 1.000000000000000000 ) ) ;
#196 = PERSON_AND_ORGANIZATION ( #164, #150 ) ;
#197 = ORIENTED_EDGE ( 'NONE', *, *, #192, .T. ) ;
#198 =( GEOMETRIC_REPRESENTATION_CONTEXT ( 3 ) GLOBAL_UNCERTAINTY_ASSIGNED_CONTEXT ( ( #33 ) ) GLOBAL_UNIT_ASSIGNED_CONTEXT ( ( #167, #111, #178 ) ) REPRESENTATION_CONTEXT ( 'NONE', 'WORKASPACE' ) );
#199 = ORIENTED_EDGE ( 'NONE', *, *, #125, .F. ) ;
#200 = DIRECTION ( 'NONE',  ( 1.224646799147353207E-16, -1.000000000000000000, 0.000000000000000000 ) ) ;
#201 = DIRECTION ( 'NONE',  ( 0.000000000000000000, -1.000000000000000000, -0.000000000000000000 ) ) ;
ENDSEC;
END-ISO-10303-21;
