ISO-10303-21;
HEADER;
FILE_DESCRIPTION (( 'STEP AP203' ),
    '1' );
FILE_NAME ('010-0130T6_N-BK7_PCV_window.STEP',
    '2021-02-25T09:30:58',
    ( '' ),
    ( '' ),
    'SwSTEP 2.0',
    'SolidWorks 2019',
    '' );
FILE_SCHEMA (( 'CONFIG_CONTROL_DESIGN' ));
ENDSEC;

DATA;
#1 = AXIS2_PLACEMENT_3D ( 'NONE', #43, #104, #16 ) ;
#2 = CARTESIAN_POINT ( 'NONE',  ( 3.694961003830599111E-13, 0.000000000000000000, 5.999999999999783284 ) ) ;
#3 = APPLICATION_PROTOCOL_DEFINITION ( 'international standard', 'config_control_design', 1994, #115 ) ;
#4 = PERSON_AND_ORGANIZATION ( #193, #47 ) ;
#5 = APPROVAL_ROLE ( '' ) ;
#6 = DIRECTION ( 'NONE',  ( -0.000000000000000000, -0.000000000000000000, -1.000000000000000000 ) ) ;
#7 = PRODUCT_DEFINITION_FORMATION_WITH_SPECIFIED_SOURCE ( 'ANY', '', #149, .NOT_KNOWN. ) ;
#8 = CC_DESIGN_PERSON_AND_ORGANIZATION_ASSIGNMENT ( #10, #70, ( #97 ) ) ;
#9 = ORIENTED_EDGE ( 'NONE', *, *, #114, .T. ) ;
#10 = PERSON_AND_ORGANIZATION ( #193, #47 ) ;
#11 = CYLINDRICAL_SURFACE ( 'NONE', #1, 6.349999999999999645 ) ;
#12 = LOCAL_TIME ( 11, 30, 58.00000000000000000, #108 ) ;
#13 = FACE_OUTER_BOUND ( 'NONE', #189, .T. ) ;
#14 = EDGE_CURVE ( 'NONE', #25, #118, #52, .T. ) ;
#15 = CARTESIAN_POINT ( 'NONE',  ( 0.000000000000000000, 0.000000000000000000, 0.000000000000000000 ) ) ;
#16 = DIRECTION ( 'NONE',  ( -1.000000000000000000, 0.000000000000000000, 0.000000000000000000 ) ) ;
#17 = CIRCLE ( 'NONE', #143, 3000.000000000000000 ) ;
#18 = COORDINATED_UNIVERSAL_TIME_OFFSET ( 2, 0, .AHEAD. ) ;
#19 = APPROVAL_DATE_TIME ( #62, #188 ) ;
#20 = CC_DESIGN_PERSON_AND_ORGANIZATION_ASSIGNMENT ( #146, #164, ( #7 ) ) ;
#21 = PERSON_AND_ORGANIZATION ( #193, #47 ) ;
#22 = CALENDAR_DATE ( 2021, 25, 2 ) ;
#23 =( GEOMETRIC_REPRESENTATION_CONTEXT ( 3 ) GLOBAL_UNCERTAINTY_ASSIGNED_CONTEXT ( ( #54 ) ) GLOBAL_UNIT_ASSIGNED_CONTEXT ( ( #33, #111, #66 ) ) REPRESENTATION_CONTEXT ( 'NONE', 'WORKASPACE' ) );
#24 = COORDINATED_UNIVERSAL_TIME_OFFSET ( 2, 0, .AHEAD. ) ;
#25 = VERTEX_POINT ( 'NONE', #26 ) ;
#26 = CARTESIAN_POINT ( 'NONE',  ( -6.349999999999999645, 0.000000000000000000, 0.000000000000000000 ) ) ;
#27 = CC_DESIGN_PERSON_AND_ORGANIZATION_ASSIGNMENT ( #21, #48, ( #7 ) ) ;
#28 = ORIENTED_EDGE ( 'NONE', *, *, #71, .F. ) ;
#29 = CARTESIAN_POINT ( 'NONE',  ( 3.694961003830599111E-13, 0.000000000000000000, 3005.993279575805900 ) ) ;
#30 = ORIENTED_EDGE ( 'NONE', *, *, #114, .F. ) ;
#31 = DATE_AND_TIME ( #145, #93 ) ;
#32 = EDGE_CURVE ( 'NONE', #137, #154, #155, .T. ) ;
#33 =( LENGTH_UNIT ( ) NAMED_UNIT ( * ) SI_UNIT ( .MILLI., .METRE. ) );
#34 = AXIS2_PLACEMENT_3D ( 'NONE', #51, #125, #158 ) ;
#35 = APPROVAL_STATUS ( 'not_yet_approved' ) ;
#36 = LOCAL_TIME ( 11, 30, 58.00000000000000000, #24 ) ;
#37 = COORDINATED_UNIVERSAL_TIME_OFFSET ( 2, 0, .AHEAD. ) ;
#38 = ORIENTED_EDGE ( 'NONE', *, *, #32, .T. ) ;
#39 = PERSON_AND_ORGANIZATION ( #193, #47 ) ;
#40 = DIRECTION ( 'NONE',  ( 1.000000000000000000, 0.000000000000000000, 0.000000000000000000 ) ) ;
#41 = DIRECTION ( 'NONE',  ( 1.000000000000000000, 1.224646799147353207E-16, 0.000000000000000000 ) ) ;
#42 = CIRCLE ( 'NONE', #190, 6.349999999999999645 ) ;
#43 = CARTESIAN_POINT ( 'NONE',  ( 0.000000000000000000, 0.000000000000000000, 6.000000000000000000 ) ) ;
#44 = CARTESIAN_POINT ( 'NONE',  ( 0.000000000000000000, 0.000000000000000000, 0.000000000000000000 ) ) ;
#45 = PERSON_AND_ORGANIZATION ( #193, #47 ) ;
#46 = PERSON_AND_ORGANIZATION_ROLE ( 'design_owner' ) ;
#47 = ORGANIZATION ( 'UNSPECIFIED', 'UNSPECIFIED', '' ) ;
#48 = PERSON_AND_ORGANIZATION_ROLE ( 'creator' ) ;
#49 = CC_DESIGN_DATE_AND_TIME_ASSIGNMENT ( #31, #128, ( #157 ) ) ;
#50 = DIRECTION ( 'NONE',  ( 0.000000000000000000, 0.000000000000000000, 1.000000000000000000 ) ) ;
#51 = CARTESIAN_POINT ( 'NONE',  ( 3.694961003830599111E-13, 0.000000000000000000, 3005.993279575805900 ) ) ;
#52 = CIRCLE ( 'NONE', #64, 6.349999999999999645 ) ;
#53 = ORIENTED_EDGE ( 'NONE', *, *, #14, .T. ) ;
#54 = UNCERTAINTY_MEASURE_WITH_UNIT (LENGTH_MEASURE( 1.000000000000000082E-05 ), #33, 'distance_accuracy_value', 'NONE');
#55 = AXIS2_PLACEMENT_3D ( 'NONE', #2, #60, #40 ) ;
#56 = DIRECTION ( 'NONE',  ( -0.000000000000000000, -0.000000000000000000, -1.000000000000000000 ) ) ;
#57 = DIRECTION ( 'NONE',  ( 1.224646799147353207E-16, -1.000000000000000000, 0.000000000000000000 ) ) ;
#58 = APPROVAL_PERSON_ORGANIZATION ( #39, #94, #179 ) ;
#59 = CARTESIAN_POINT ( 'NONE',  ( 6.349999999999999645, 7.776507174585692163E-16, 6.000000000000000000 ) ) ;
#60 = DIRECTION ( 'NONE',  ( -0.000000000000000000, -0.000000000000000000, -1.000000000000000000 ) ) ;
#61 = PRODUCT_DEFINITION_SHAPE ( 'NONE', 'NONE',  #157 ) ;
#62 = DATE_AND_TIME ( #161, #12 ) ;
#63 = CC_DESIGN_PERSON_AND_ORGANIZATION_ASSIGNMENT ( #45, #46, ( #149 ) ) ;
#64 = AXIS2_PLACEMENT_3D ( 'NONE', #15, #76, #124 ) ;
#65 = MECHANICAL_CONTEXT ( 'NONE', #115, 'mechanical' ) ;
#66 =( NAMED_UNIT ( * ) SI_UNIT ( $, .STERADIAN. ) SOLID_ANGLE_UNIT ( ) );
#67 = CIRCLE ( 'NONE', #55, 6.350000000023658941 ) ;
#68 = EDGE_LOOP ( 'NONE', ( #73, #30, #38 ) ) ;
#69 = MANIFOLD_SOLID_BREP ( 'Cut-Revolve1', #72 ) ;
#70 = PERSON_AND_ORGANIZATION_ROLE ( 'classification_officer' ) ;
#71 = EDGE_CURVE ( 'NONE', #137, #118, #185, .T. ) ;
#72 = CLOSED_SHELL ( 'NONE', ( #151, #98, #200, #129, #178 ) ) ;
#73 = ORIENTED_EDGE ( 'NONE', *, *, #81, .F. ) ;
#74 = CC_DESIGN_APPROVAL ( #188, ( #7 ) ) ;
#75 = CARTESIAN_POINT ( 'NONE',  ( 5.531931202551628353E-13, 0.000000000000000000, 5.993279575805754433 ) ) ;
#76 = DIRECTION ( 'NONE',  ( 0.000000000000000000, 0.000000000000000000, 1.000000000000000000 ) ) ;
#77 = CARTESIAN_POINT ( 'NONE',  ( 6.349999999999999645, 7.776507174585692163E-16, 0.000000000000000000 ) ) ;
#78 = AXIS2_PLACEMENT_3D ( 'NONE', #29, #144, #122 ) ;
#79 = CARTESIAN_POINT ( 'NONE',  ( 6.350000000024028424, 7.776507174615119633E-16, 5.999999999999783284 ) ) ;
#80 = CARTESIAN_POINT ( 'NONE',  ( 0.000000000000000000, 0.000000000000000000, 0.000000000000000000 ) ) ;
#81 = EDGE_CURVE ( 'NONE', #84, #154, #17, .T. ) ;
#82 = DATE_AND_TIME ( #175, #162 ) ;
#83 = SPHERICAL_SURFACE ( 'NONE', #34, 3000.000000000000000 ) ;
#84 = VERTEX_POINT ( 'NONE', #168 ) ;
#85 = CC_DESIGN_PERSON_AND_ORGANIZATION_ASSIGNMENT ( #109, #160, ( #157 ) ) ;
#86 = APPROVAL_STATUS ( 'not_yet_approved' ) ;
#87 = SPHERICAL_SURFACE ( 'NONE', #132, 3000.000000000000000 ) ;
#88 = CARTESIAN_POINT ( 'NONE',  ( 0.000000000000000000, 0.000000000000000000, 0.000000000000000000 ) ) ;
#89 = ORIENTED_EDGE ( 'NONE', *, *, #81, .T. ) ;
#90 = APPROVAL ( #148, 'UNSPECIFIED' ) ;
#91 = CARTESIAN_POINT ( 'NONE',  ( 3.694961003830599111E-13, 0.000000000000000000, 5.999999999999783284 ) ) ;
#92 = CARTESIAN_POINT ( 'NONE',  ( 3.694961003830599111E-13, 0.000000000000000000, 3005.993279575805900 ) ) ;
#93 = LOCAL_TIME ( 11, 30, 58.00000000000000000, #191 ) ;
#94 = APPROVAL ( #86, 'UNSPECIFIED' ) ;
#95 = APPROVAL_DATE_TIME ( #82, #90 ) ;
#96 = APPROVAL_ROLE ( '' ) ;
#97 = SECURITY_CLASSIFICATION ( '', '', #113 ) ;
#98 = ADVANCED_FACE ( 'NONE', ( #186 ), #11, .T. ) ;
#99 = CALENDAR_DATE ( 2021, 25, 2 ) ;
#100 = CC_DESIGN_APPROVAL ( #90, ( #157 ) ) ;
#101 = DIRECTION ( 'NONE',  ( 1.000000000000000000, 0.000000000000000000, -0.000000000000000000 ) ) ;
#102 = EDGE_LOOP ( 'NONE', ( #141, #121 ) ) ;
#103 = EDGE_CURVE ( 'NONE', #118, #25, #42, .T. ) ;
#104 = DIRECTION ( 'NONE',  ( -0.000000000000000000, -0.000000000000000000, -1.000000000000000000 ) ) ;
#105 = EDGE_LOOP ( 'NONE', ( #28, #9, #136, #53 ) ) ;
#106 = PERSON_AND_ORGANIZATION ( #193, #47 ) ;
#107 = AXIS2_PLACEMENT_3D ( 'NONE', #91, #153, #138 ) ;
#108 = COORDINATED_UNIVERSAL_TIME_OFFSET ( 2, 0, .AHEAD. ) ;
#109 = PERSON_AND_ORGANIZATION ( #193, #47 ) ;
#110 = CYLINDRICAL_SURFACE ( 'NONE', #192, 6.349999999999999645 ) ;
#111 =( NAMED_UNIT ( * ) PLANE_ANGLE_UNIT ( ) SI_UNIT ( $, .RADIAN. ) );
#112 = AXIS2_PLACEMENT_3D ( 'NONE', #80, #50, #130 ) ;
#113 = SECURITY_CLASSIFICATION_LEVEL ( 'unclassified' ) ;
#114 = EDGE_CURVE ( 'NONE', #137, #84, #177, .T. ) ;
#115 = APPLICATION_CONTEXT ( 'configuration controlled 3d designs of mechanical parts and assemblies' ) ;
#116 = VECTOR ( 'NONE', #56, 1000.000000000000000 ) ;
#117 = CC_DESIGN_APPROVAL ( #94, ( #97 ) ) ;
#118 = VERTEX_POINT ( 'NONE', #77 ) ;
#119 = APPROVAL_PERSON_ORGANIZATION ( #4, #188, #96 ) ;
#120 = DIRECTION ( 'NONE',  ( 0.000000000000000000, -1.000000000000000000, -0.000000000000000000 ) ) ;
#121 = ORIENTED_EDGE ( 'NONE', *, *, #103, .F. ) ;
#122 = DIRECTION ( 'NONE',  ( 0.000000000000000000, 0.000000000000000000, 1.000000000000000000 ) ) ;
#123 = DIRECTION ( 'NONE',  ( 1.000000000000000000, 0.000000000000000000, 0.000000000000000000 ) ) ;
#124 = DIRECTION ( 'NONE',  ( 1.000000000000000000, 0.000000000000000000, 0.000000000000000000 ) ) ;
#125 = DIRECTION ( 'NONE',  ( 0.000000000000000000, -1.000000000000000000, -0.000000000000000000 ) ) ;
#126 = DIRECTION ( 'NONE',  ( -1.000000000000000000, 0.000000000000000000, 0.000000000000000000 ) ) ;
#127 = APPLICATION_CONTEXT ( 'configuration controlled 3d designs of mechanical parts and assemblies' ) ;
#128 = DATE_TIME_ROLE ( 'creation_date' ) ;
#129 = ADVANCED_FACE ( 'NONE', ( #140 ), #201, .F. ) ;
#130 = DIRECTION ( 'NONE',  ( 1.000000000000000000, 0.000000000000000000, 0.000000000000000000 ) ) ;
#131 = LOCAL_TIME ( 11, 30, 58.00000000000000000, #37 ) ;
#132 = AXIS2_PLACEMENT_3D ( 'NONE', #150, #120, #167 ) ;
#133 = DATE_AND_TIME ( #99, #131 ) ;
#134 = PRODUCT_RELATED_PRODUCT_CATEGORY ( 'detail', '', ( #149 ) ) ;
#135 = DATE_AND_TIME ( #22, #36 ) ;
#136 = ORIENTED_EDGE ( 'NONE', *, *, #195, .T. ) ;
#137 = VERTEX_POINT ( 'NONE', #79 ) ;
#138 = DIRECTION ( 'NONE',  ( 1.000000000000000000, 0.000000000000000000, 0.000000000000000000 ) ) ;
#139 = EDGE_CURVE ( 'NONE', #84, #137, #67, .T. ) ;
#140 = FACE_OUTER_BOUND ( 'NONE', #102, .T. ) ;
#141 = ORIENTED_EDGE ( 'NONE', *, *, #14, .F. ) ;
#142 = ORIENTED_EDGE ( 'NONE', *, *, #139, .T. ) ;
#143 = AXIS2_PLACEMENT_3D ( 'NONE', #92, #57, #41 ) ;
#144 = DIRECTION ( 'NONE',  ( 0.000000000000000000, 1.000000000000000000, -0.000000000000000000 ) ) ;
#145 = CALENDAR_DATE ( 2021, 25, 2 ) ;
#146 = PERSON_AND_ORGANIZATION ( #193, #47 ) ;
#147 = APPLICATION_PROTOCOL_DEFINITION ( 'international standard', 'config_control_design', 1994, #127 ) ;
#148 = APPROVAL_STATUS ( 'not_yet_approved' ) ;
#149 = PRODUCT ( '010-0130T6_N-BK7_PCV_window', '010-0130T6_N-BK7_PCV_window', '', ( #65 ) ) ;
#150 = CARTESIAN_POINT ( 'NONE',  ( 3.694961003830599111E-13, 0.000000000000000000, 3005.993279575805900 ) ) ;
#151 = ADVANCED_FACE ( 'NONE', ( #13 ), #87, .F. ) ;
#152 = EDGE_LOOP ( 'NONE', ( #142, #196, #198, #184 ) ) ;
#153 = DIRECTION ( 'NONE',  ( -0.000000000000000000, -0.000000000000000000, -1.000000000000000000 ) ) ;
#154 = VERTEX_POINT ( 'NONE', #75 ) ;
#155 = CIRCLE ( 'NONE', #78, 3000.000000000000455 ) ;
#156 = FACE_OUTER_BOUND ( 'NONE', #105, .T. ) ;
#157 = PRODUCT_DEFINITION ( 'UNKNOWN', '', #7, #181 ) ;
#158 = DIRECTION ( 'NONE',  ( 1.000000000000000000, 0.000000000000000000, 0.000000000000000000 ) ) ;
#159 = VECTOR ( 'NONE', #6, 1000.000000000000000 ) ;
#160 = PERSON_AND_ORGANIZATION_ROLE ( 'creator' ) ;
#161 = CALENDAR_DATE ( 2021, 25, 2 ) ;
#162 = LOCAL_TIME ( 11, 30, 58.00000000000000000, #18 ) ;
#163 = ADVANCED_BREP_SHAPE_REPRESENTATION ( '010-0130T6_N-BK7_PCV_window', ( #69, #112 ), #23 ) ;
#164 = PERSON_AND_ORGANIZATION_ROLE ( 'design_supplier' ) ;
#165 = SHAPE_DEFINITION_REPRESENTATION ( #61, #163 ) ;
#166 = FACE_OUTER_BOUND ( 'NONE', #68, .T. ) ;
#167 = DIRECTION ( 'NONE',  ( 1.000000000000000000, 0.000000000000000000, 0.000000000000000000 ) ) ;
#168 = CARTESIAN_POINT ( 'NONE',  ( -6.350000000023290347, 0.000000000000000000, 5.999999999999783284 ) ) ;
#169 = ORIENTED_EDGE ( 'NONE', *, *, #32, .F. ) ;
#170 = DIRECTION ( 'NONE',  ( 0.000000000000000000, 0.000000000000000000, 1.000000000000000000 ) ) ;
#171 = LINE ( 'NONE', #172, #159 ) ;
#172 = CARTESIAN_POINT ( 'NONE',  ( -6.349999999999999645, 0.000000000000000000, 6.000000000000000000 ) ) ;
#173 = CC_DESIGN_DATE_AND_TIME_ASSIGNMENT ( #135, #197, ( #97 ) ) ;
#174 = DIRECTION ( 'NONE',  ( -0.000000000000000000, -0.000000000000000000, -1.000000000000000000 ) ) ;
#175 = CALENDAR_DATE ( 2021, 25, 2 ) ;
#176 = CARTESIAN_POINT ( 'NONE',  ( 0.000000000000000000, 0.000000000000000000, 6.000000000000000000 ) ) ;
#177 = CIRCLE ( 'NONE', #107, 6.350000000023658941 ) ;
#178 = ADVANCED_FACE ( 'NONE', ( #166 ), #83, .F. ) ;
#179 = APPROVAL_ROLE ( '' ) ;
#180 = ORIENTED_EDGE ( 'NONE', *, *, #139, .F. ) ;
#181 = DESIGN_CONTEXT ( 'detailed design', #127, 'design' ) ;
#182 = APPROVAL_PERSON_ORGANIZATION ( #106, #90, #5 ) ;
#183 = CC_DESIGN_SECURITY_CLASSIFICATION ( #97, ( #7 ) ) ;
#184 = ORIENTED_EDGE ( 'NONE', *, *, #195, .F. ) ;
#185 = LINE ( 'NONE', #59, #116 ) ;
#186 = FACE_OUTER_BOUND ( 'NONE', #152, .T. ) ;
#187 = AXIS2_PLACEMENT_3D ( 'NONE', #44, #170, #101 ) ;
#188 = APPROVAL ( #35, 'UNSPECIFIED' ) ;
#189 = EDGE_LOOP ( 'NONE', ( #180, #89, #169 ) ) ;
#190 = AXIS2_PLACEMENT_3D ( 'NONE', #88, #199, #123 ) ;
#191 = COORDINATED_UNIVERSAL_TIME_OFFSET ( 2, 0, .AHEAD. ) ;
#192 = AXIS2_PLACEMENT_3D ( 'NONE', #176, #174, #126 ) ;
#193 = PERSON ( 'UNSPECIFIED', 'UNSPECIFIED', 'UNSPECIFIED', ('UNSPECIFIED'), ('UNSPECIFIED'), ('UNSPECIFIED') ) ;
#194 = APPROVAL_DATE_TIME ( #133, #94 ) ;
#195 = EDGE_CURVE ( 'NONE', #84, #25, #171, .T. ) ;
#196 = ORIENTED_EDGE ( 'NONE', *, *, #71, .T. ) ;
#197 = DATE_TIME_ROLE ( 'classification_date' ) ;
#198 = ORIENTED_EDGE ( 'NONE', *, *, #103, .T. ) ;
#199 = DIRECTION ( 'NONE',  ( 0.000000000000000000, 0.000000000000000000, 1.000000000000000000 ) ) ;
#200 = ADVANCED_FACE ( 'NONE', ( #156 ), #110, .T. ) ;
#201 = PLANE ( 'NONE',  #187 ) ;
ENDSEC;
END-ISO-10303-21;
