ISO-10303-21;
HEADER;
FILE_DESCRIPTION (( 'STEP AP203' ),
    '1' );
FILE_NAME ('010-0130E_N-BK7_PCV_window.STEP',
    '2021-02-25T08:25:21',
    ( '' ),
    ( '' ),
    'SwSTEP 2.0',
    'SolidWorks 2019',
    '' );
FILE_SCHEMA (( 'CONFIG_CONTROL_DESIGN' ));
ENDSEC;

DATA;
#1 = EDGE_CURVE ( 'NONE', #153, #119, #41, .T. ) ;
#2 = CALENDAR_DATE ( 2021, 25, 2 ) ;
#3 = AXIS2_PLACEMENT_3D ( 'NONE', #57, #121, #181 ) ;
#4 = PERSON_AND_ORGANIZATION ( #115, #192 ) ;
#5 = CALENDAR_DATE ( 2021, 25, 2 ) ;
#6 = AXIS2_PLACEMENT_3D ( 'NONE', #95, #157, #143 ) ;
#7 = CC_DESIGN_DATE_AND_TIME_ASSIGNMENT ( #19, #187, ( #193 ) ) ;
#8 = LOCAL_TIME ( 10, 25, 21.00000000000000000, #49 ) ;
#9 = CIRCLE ( 'NONE', #152, 3000.000000000000000 ) ;
#10 = ORIENTED_EDGE ( 'NONE', *, *, #167, .F. ) ;
#11 = PRODUCT_DEFINITION_SHAPE ( 'NONE', 'NONE',  #193 ) ;
#12 = ORIENTED_EDGE ( 'NONE', *, *, #1, .F. ) ;
#13 = ORIENTED_EDGE ( 'NONE', *, *, #138, .T. ) ;
#14 = PERSON_AND_ORGANIZATION ( #115, #192 ) ;
#15 = PERSON_AND_ORGANIZATION ( #115, #192 ) ;
#16 = PLANE ( 'NONE',  #89 ) ;
#17 = DIRECTION ( 'NONE',  ( 1.000000000000000000, 0.000000000000000000, 0.000000000000000000 ) ) ;
#18 = CC_DESIGN_PERSON_AND_ORGANIZATION_ASSIGNMENT ( #14, #45, ( #38 ) ) ;
#19 = DATE_AND_TIME ( #5, #139 ) ;
#20 = AXIS2_PLACEMENT_3D ( 'NONE', #122, #142, #144 ) ;
#21 = CALENDAR_DATE ( 2021, 25, 2 ) ;
#22 = ADVANCED_BREP_SHAPE_REPRESENTATION ( '010-0130E_N-BK7_PCV_window', ( #46, #86 ), #48 ) ;
#23 = PERSON_AND_ORGANIZATION_ROLE ( 'classification_officer' ) ;
#24 = ORIENTED_EDGE ( 'NONE', *, *, #189, .F. ) ;
#25 = VERTEX_POINT ( 'NONE', #74 ) ;
#26 = CYLINDRICAL_SURFACE ( 'NONE', #175, 6.349999999999999645 ) ;
#27 = CARTESIAN_POINT ( 'NONE',  ( -6.349999999999999645, 0.000000000000000000, 3.000000000000000000 ) ) ;
#28 = SPHERICAL_SURFACE ( 'NONE', #6, 3000.000000000000000 ) ;
#29 = CARTESIAN_POINT ( 'NONE',  ( 6.350000000024028424, 7.776507174615119633E-16, 3.000000000000113687 ) ) ;
#30 = APPLICATION_PROTOCOL_DEFINITION ( 'international standard', 'config_control_design', 1994, #94 ) ;
#31 = PERSON_AND_ORGANIZATION_ROLE ( 'creator' ) ;
#32 = ADVANCED_FACE ( 'NONE', ( #196 ), #28, .F. ) ;
#33 = APPROVAL_DATE_TIME ( #116, #87 ) ;
#34 = APPROVAL_DATE_TIME ( #149, #135 ) ;
#35 = ORIENTED_EDGE ( 'NONE', *, *, #44, .F. ) ;
#36 = EDGE_LOOP ( 'NONE', ( #35, #199, #194 ) ) ;
#37 = CC_DESIGN_SECURITY_CLASSIFICATION ( #150, ( #56 ) ) ;
#38 = PRODUCT ( '010-0130E_N-BK7_PCV_window', '010-0130E_N-BK7_PCV_window', '', ( #158 ) ) ;
#39 = DIRECTION ( 'NONE',  ( -0.000000000000000000, -0.000000000000000000, -1.000000000000000000 ) ) ;
#40 = DIRECTION ( 'NONE',  ( -1.000000000000000000, 0.000000000000000000, 0.000000000000000000 ) ) ;
#41 = LINE ( 'NONE', #141, #133 ) ;
#42 = DIRECTION ( 'NONE',  ( -0.000000000000000000, -0.000000000000000000, -1.000000000000000000 ) ) ;
#43 = APPROVAL_PERSON_ORGANIZATION ( #4, #103, #50 ) ;
#44 = EDGE_CURVE ( 'NONE', #151, #91, #9, .T. ) ;
#45 = PERSON_AND_ORGANIZATION_ROLE ( 'design_owner' ) ;
#46 = MANIFOLD_SOLID_BREP ( 'Cut-Revolve1', #105 ) ;
#47 =( LENGTH_UNIT ( ) NAMED_UNIT ( * ) SI_UNIT ( .MILLI., .METRE. ) );
#48 =( GEOMETRIC_REPRESENTATION_CONTEXT ( 3 ) GLOBAL_UNCERTAINTY_ASSIGNED_CONTEXT ( ( #195 ) ) GLOBAL_UNIT_ASSIGNED_CONTEXT ( ( #47, #93, #113 ) ) REPRESENTATION_CONTEXT ( 'NONE', 'WORKASPACE' ) );
#49 = COORDINATED_UNIVERSAL_TIME_OFFSET ( 2, 0, .AHEAD. ) ;
#50 = APPROVAL_ROLE ( '' ) ;
#51 = COORDINATED_UNIVERSAL_TIME_OFFSET ( 2, 0, .AHEAD. ) ;
#52 = ADVANCED_FACE ( 'NONE', ( #73 ), #140, .T. ) ;
#53 = ORIENTED_EDGE ( 'NONE', *, *, #178, .F. ) ;
#54 = ORIENTED_EDGE ( 'NONE', *, *, #1, .T. ) ;
#55 = EDGE_CURVE ( 'NONE', #153, #151, #176, .T. ) ;
#56 = PRODUCT_DEFINITION_FORMATION_WITH_SPECIFIED_SOURCE ( 'ANY', '', #38, .NOT_KNOWN. ) ;
#57 = CARTESIAN_POINT ( 'NONE',  ( 0.000000000000000000, 0.000000000000000000, 3.000000000000000000 ) ) ;
#58 = FACE_OUTER_BOUND ( 'NONE', #179, .T. ) ;
#59 = ORIENTED_EDGE ( 'NONE', *, *, #128, .F. ) ;
#60 = EDGE_LOOP ( 'NONE', ( #71, #54, #13, #53 ) ) ;
#61 = CARTESIAN_POINT ( 'NONE',  ( 0.000000000000000000, 0.000000000000000000, 0.000000000000000000 ) ) ;
#62 = DIRECTION ( 'NONE',  ( 0.000000000000000000, 0.000000000000000000, 1.000000000000000000 ) ) ;
#63 = DIRECTION ( 'NONE',  ( 1.000000000000000000, 0.000000000000000000, -0.000000000000000000 ) ) ;
#64 = PRODUCT_RELATED_PRODUCT_CATEGORY ( 'detail', '', ( #38 ) ) ;
#65 = CIRCLE ( 'NONE', #162, 6.349999999999999645 ) ;
#66 = SHAPE_DEFINITION_REPRESENTATION ( #11, #22 ) ;
#67 = APPROVAL_ROLE ( '' ) ;
#68 = DATE_AND_TIME ( #173, #130 ) ;
#69 = EDGE_LOOP ( 'NONE', ( #12, #166, #137, #170 ) ) ;
#70 = AXIS2_PLACEMENT_3D ( 'NONE', #183, #39, #107 ) ;
#71 = ORIENTED_EDGE ( 'NONE', *, *, #167, .T. ) ;
#72 = CC_DESIGN_APPROVAL ( #87, ( #56 ) ) ;
#73 = FACE_OUTER_BOUND ( 'NONE', #60, .T. ) ;
#74 = CARTESIAN_POINT ( 'NONE',  ( -6.349999999999999645, 0.000000000000000000, 0.000000000000000000 ) ) ;
#75 = CARTESIAN_POINT ( 'NONE',  ( 0.000000000000000000, 0.000000000000000000, 0.000000000000000000 ) ) ;
#76 = DIRECTION ( 'NONE',  ( -0.000000000000000000, -0.000000000000000000, -1.000000000000000000 ) ) ;
#77 = DIRECTION ( 'NONE',  ( 0.000000000000000000, -1.000000000000000000, -0.000000000000000000 ) ) ;
#78 = COORDINATED_UNIVERSAL_TIME_OFFSET ( 2, 0, .AHEAD. ) ;
#79 = CC_DESIGN_PERSON_AND_ORGANIZATION_ASSIGNMENT ( #102, #177, ( #56 ) ) ;
#80 = DIRECTION ( 'NONE',  ( 0.000000000000000000, 0.000000000000000000, 1.000000000000000000 ) ) ;
#81 = DATE_AND_TIME ( #85, #8 ) ;
#82 = ADVANCED_FACE ( 'NONE', ( #168 ), #26, .T. ) ;
#83 = APPROVAL_STATUS ( 'not_yet_approved' ) ;
#84 = PERSON_AND_ORGANIZATION_ROLE ( 'design_supplier' ) ;
#85 = CALENDAR_DATE ( 2021, 25, 2 ) ;
#86 = AXIS2_PLACEMENT_3D ( 'NONE', #75, #123, #172 ) ;
#87 = APPROVAL ( #83, 'UNSPECIFIED' ) ;
#88 = DESIGN_CONTEXT ( 'detailed design', #118, 'design' ) ;
#89 = AXIS2_PLACEMENT_3D ( 'NONE', #61, #80, #63 ) ;
#90 = DIRECTION ( 'NONE',  ( 1.224646799147353207E-16, -1.000000000000000000, 0.000000000000000000 ) ) ;
#91 = VERTEX_POINT ( 'NONE', #99 ) ;
#92 = APPROVAL_PERSON_ORGANIZATION ( #15, #135, #145 ) ;
#93 =( NAMED_UNIT ( * ) PLANE_ANGLE_UNIT ( ) SI_UNIT ( $, .RADIAN. ) );
#94 = APPLICATION_CONTEXT ( 'configuration controlled 3d designs of mechanical parts and assemblies' ) ;
#95 = CARTESIAN_POINT ( 'NONE',  ( 3.694961003830599111E-13, 0.000000000000000000, 3002.993279575805900 ) ) ;
#96 = DIRECTION ( 'NONE',  ( 0.000000000000000000, 1.000000000000000000, -0.000000000000000000 ) ) ;
#97 = DIRECTION ( 'NONE',  ( -0.000000000000000000, -0.000000000000000000, -1.000000000000000000 ) ) ;
#98 = CC_DESIGN_APPROVAL ( #135, ( #193 ) ) ;
#99 = CARTESIAN_POINT ( 'NONE',  ( 5.531931202551628353E-13, 0.000000000000000000, 2.993279575806084836 ) ) ;
#100 = APPROVAL_PERSON_ORGANIZATION ( #148, #87, #67 ) ;
#101 = SECURITY_CLASSIFICATION_LEVEL ( 'unclassified' ) ;
#102 = PERSON_AND_ORGANIZATION ( #115, #192 ) ;
#103 = APPROVAL ( #131, 'UNSPECIFIED' ) ;
#104 = EDGE_LOOP ( 'NONE', ( #10, #109, #24 ) ) ;
#105 = CLOSED_SHELL ( 'NONE', ( #32, #52, #82, #120, #117 ) ) ;
#106 = CC_DESIGN_PERSON_AND_ORGANIZATION_ASSIGNMENT ( #132, #84, ( #56 ) ) ;
#107 = DIRECTION ( 'NONE',  ( 1.000000000000000000, 0.000000000000000000, 0.000000000000000000 ) ) ;
#108 = DIRECTION ( 'NONE',  ( 1.000000000000000000, 0.000000000000000000, 0.000000000000000000 ) ) ;
#109 = ORIENTED_EDGE ( 'NONE', *, *, #44, .T. ) ;
#110 = DIRECTION ( 'NONE',  ( 0.000000000000000000, 0.000000000000000000, 1.000000000000000000 ) ) ;
#111 = CARTESIAN_POINT ( 'NONE',  ( -6.350000000023290347, 0.000000000000000000, 3.000000000000113687 ) ) ;
#112 = APPROVAL_STATUS ( 'not_yet_approved' ) ;
#113 =( NAMED_UNIT ( * ) SI_UNIT ( $, .STERADIAN. ) SOLID_ANGLE_UNIT ( ) );
#114 = LOCAL_TIME ( 10, 25, 21.00000000000000000, #78 ) ;
#115 = PERSON ( 'UNSPECIFIED', 'UNSPECIFIED', 'UNSPECIFIED', ('UNSPECIFIED'), ('UNSPECIFIED'), ('UNSPECIFIED') ) ;
#116 = DATE_AND_TIME ( #21, #155 ) ;
#117 = ADVANCED_FACE ( 'NONE', ( #160 ), #184, .F. ) ;
#118 = APPLICATION_CONTEXT ( 'configuration controlled 3d designs of mechanical parts and assemblies' ) ;
#119 = VERTEX_POINT ( 'NONE', #182 ) ;
#120 = ADVANCED_FACE ( 'NONE', ( #58 ), #16, .F. ) ;
#121 = DIRECTION ( 'NONE',  ( -0.000000000000000000, -0.000000000000000000, -1.000000000000000000 ) ) ;
#122 = CARTESIAN_POINT ( 'NONE',  ( 0.000000000000000000, 0.000000000000000000, 0.000000000000000000 ) ) ;
#123 = DIRECTION ( 'NONE',  ( 0.000000000000000000, 0.000000000000000000, 1.000000000000000000 ) ) ;
#124 = CC_DESIGN_APPROVAL ( #103, ( #150 ) ) ;
#125 = CARTESIAN_POINT ( 'NONE',  ( 3.694961003830599111E-13, 0.000000000000000000, 3002.993279575805900 ) ) ;
#126 = CC_DESIGN_DATE_AND_TIME_ASSIGNMENT ( #81, #161, ( #150 ) ) ;
#127 = CARTESIAN_POINT ( 'NONE',  ( 3.694961003830599111E-13, 0.000000000000000000, 3.000000000000113687 ) ) ;
#128 = EDGE_CURVE ( 'NONE', #25, #119, #185, .T. ) ;
#129 = PERSON_AND_ORGANIZATION ( #115, #192 ) ;
#130 = LOCAL_TIME ( 10, 25, 21.00000000000000000, #163 ) ;
#131 = APPROVAL_STATUS ( 'not_yet_approved' ) ;
#132 = PERSON_AND_ORGANIZATION ( #115, #192 ) ;
#133 = VECTOR ( 'NONE', #76, 1000.000000000000000 ) ;
#134 = AXIS2_PLACEMENT_3D ( 'NONE', #125, #96, #62 ) ;
#135 = APPROVAL ( #112, 'UNSPECIFIED' ) ;
#136 = ORIENTED_EDGE ( 'NONE', *, *, #138, .F. ) ;
#137 = ORIENTED_EDGE ( 'NONE', *, *, #178, .T. ) ;
#138 = EDGE_CURVE ( 'NONE', #119, #25, #65, .T. ) ;
#139 = LOCAL_TIME ( 10, 25, 21.00000000000000000, #164 ) ;
#140 = CYLINDRICAL_SURFACE ( 'NONE', #3, 6.349999999999999645 ) ;
#141 = CARTESIAN_POINT ( 'NONE',  ( 6.349999999999999645, 7.776507174585692163E-16, 3.000000000000000000 ) ) ;
#142 = DIRECTION ( 'NONE',  ( 0.000000000000000000, 0.000000000000000000, 1.000000000000000000 ) ) ;
#143 = DIRECTION ( 'NONE',  ( 1.000000000000000000, 0.000000000000000000, 0.000000000000000000 ) ) ;
#144 = DIRECTION ( 'NONE',  ( 1.000000000000000000, 0.000000000000000000, 0.000000000000000000 ) ) ;
#145 = APPROVAL_ROLE ( '' ) ;
#146 = CIRCLE ( 'NONE', #165, 6.350000000023658941 ) ;
#147 = AXIS2_PLACEMENT_3D ( 'NONE', #200, #77, #17 ) ;
#148 = PERSON_AND_ORGANIZATION ( #115, #192 ) ;
#149 = DATE_AND_TIME ( #2, #114 ) ;
#150 = SECURITY_CLASSIFICATION ( '', '', #101 ) ;
#151 = VERTEX_POINT ( 'NONE', #111 ) ;
#152 = AXIS2_PLACEMENT_3D ( 'NONE', #198, #90, #154 ) ;
#153 = VERTEX_POINT ( 'NONE', #29 ) ;
#154 = DIRECTION ( 'NONE',  ( 1.000000000000000000, 1.224646799147353207E-16, 0.000000000000000000 ) ) ;
#155 = LOCAL_TIME ( 10, 25, 21.00000000000000000, #51 ) ;
#156 = CARTESIAN_POINT ( 'NONE',  ( 0.000000000000000000, 0.000000000000000000, 3.000000000000000000 ) ) ;
#157 = DIRECTION ( 'NONE',  ( 0.000000000000000000, -1.000000000000000000, -0.000000000000000000 ) ) ;
#158 = MECHANICAL_CONTEXT ( 'NONE', #94, 'mechanical' ) ;
#159 = DIRECTION ( 'NONE',  ( -0.000000000000000000, -0.000000000000000000, -1.000000000000000000 ) ) ;
#160 = FACE_OUTER_BOUND ( 'NONE', #36, .T. ) ;
#161 = DATE_TIME_ROLE ( 'classification_date' ) ;
#162 = AXIS2_PLACEMENT_3D ( 'NONE', #197, #110, #108 ) ;
#163 = COORDINATED_UNIVERSAL_TIME_OFFSET ( 2, 0, .AHEAD. ) ;
#164 = COORDINATED_UNIVERSAL_TIME_OFFSET ( 2, 0, .AHEAD. ) ;
#165 = AXIS2_PLACEMENT_3D ( 'NONE', #127, #97, #169 ) ;
#166 = ORIENTED_EDGE ( 'NONE', *, *, #55, .T. ) ;
#167 = EDGE_CURVE ( 'NONE', #151, #153, #146, .T. ) ;
#168 = FACE_OUTER_BOUND ( 'NONE', #69, .T. ) ;
#169 = DIRECTION ( 'NONE',  ( 1.000000000000000000, 0.000000000000000000, 0.000000000000000000 ) ) ;
#170 = ORIENTED_EDGE ( 'NONE', *, *, #128, .T. ) ;
#171 = APPLICATION_PROTOCOL_DEFINITION ( 'international standard', 'config_control_design', 1994, #118 ) ;
#172 = DIRECTION ( 'NONE',  ( 1.000000000000000000, 0.000000000000000000, 0.000000000000000000 ) ) ;
#173 = CALENDAR_DATE ( 2021, 25, 2 ) ;
#174 = APPROVAL_DATE_TIME ( #68, #103 ) ;
#175 = AXIS2_PLACEMENT_3D ( 'NONE', #156, #42, #40 ) ;
#176 = CIRCLE ( 'NONE', #70, 6.350000000023658941 ) ;
#177 = PERSON_AND_ORGANIZATION_ROLE ( 'creator' ) ;
#178 = EDGE_CURVE ( 'NONE', #151, #25, #201, .T. ) ;
#179 = EDGE_LOOP ( 'NONE', ( #59, #136 ) ) ;
#180 = VECTOR ( 'NONE', #159, 1000.000000000000000 ) ;
#181 = DIRECTION ( 'NONE',  ( -1.000000000000000000, 0.000000000000000000, 0.000000000000000000 ) ) ;
#182 = CARTESIAN_POINT ( 'NONE',  ( 6.349999999999999645, 7.776507174585692163E-16, 0.000000000000000000 ) ) ;
#183 = CARTESIAN_POINT ( 'NONE',  ( 3.694961003830599111E-13, 0.000000000000000000, 3.000000000000113687 ) ) ;
#184 = SPHERICAL_SURFACE ( 'NONE', #147, 3000.000000000000000 ) ;
#185 = CIRCLE ( 'NONE', #20, 6.349999999999999645 ) ;
#186 = CC_DESIGN_PERSON_AND_ORGANIZATION_ASSIGNMENT ( #129, #31, ( #193 ) ) ;
#187 = DATE_TIME_ROLE ( 'creation_date' ) ;
#188 = PERSON_AND_ORGANIZATION ( #115, #192 ) ;
#189 = EDGE_CURVE ( 'NONE', #153, #91, #190, .T. ) ;
#190 = CIRCLE ( 'NONE', #134, 3000.000000000000000 ) ;
#191 = CC_DESIGN_PERSON_AND_ORGANIZATION_ASSIGNMENT ( #188, #23, ( #150 ) ) ;
#192 = ORGANIZATION ( 'UNSPECIFIED', 'UNSPECIFIED', '' ) ;
#193 = PRODUCT_DEFINITION ( 'UNKNOWN', '', #56, #88 ) ;
#194 = ORIENTED_EDGE ( 'NONE', *, *, #189, .T. ) ;
#195 = UNCERTAINTY_MEASURE_WITH_UNIT (LENGTH_MEASURE( 1.000000000000000082E-05 ), #47, 'distance_accuracy_value', 'NONE');
#196 = FACE_OUTER_BOUND ( 'NONE', #104, .T. ) ;
#197 = CARTESIAN_POINT ( 'NONE',  ( 0.000000000000000000, 0.000000000000000000, 0.000000000000000000 ) ) ;
#198 = CARTESIAN_POINT ( 'NONE',  ( 3.694961003830599111E-13, 0.000000000000000000, 3002.993279575805900 ) ) ;
#199 = ORIENTED_EDGE ( 'NONE', *, *, #55, .F. ) ;
#200 = CARTESIAN_POINT ( 'NONE',  ( 3.694961003830599111E-13, 0.000000000000000000, 3002.993279575805900 ) ) ;
#201 = LINE ( 'NONE', #27, #180 ) ;
ENDSEC;
END-ISO-10303-21;
