ISO-10303-21;
HEADER;
FILE_DESCRIPTION (( 'STEP AP203' ),
    '1' );
FILE_NAME ('010-0125T6_N-BK7_PCV_window.STEP',
    '2021-02-25T09:29:50',
    ( '' ),
    ( '' ),
    'SwSTEP 2.0',
    'SolidWorks 2019',
    '' );
FILE_SCHEMA (( 'CONFIG_CONTROL_DESIGN' ));
ENDSEC;

DATA;
#1 = AXIS2_PLACEMENT_3D ( 'NONE', #195, #46, #106 ) ;
#2 = COORDINATED_UNIVERSAL_TIME_OFFSET ( 2, 0, .AHEAD. ) ;
#3 = CC_DESIGN_PERSON_AND_ORGANIZATION_ASSIGNMENT ( #135, #97, ( #9 ) ) ;
#4 = DIRECTION ( 'NONE',  ( 1.000000000000000000, 0.000000000000000000, 0.000000000000000000 ) ) ;
#5 = APPROVAL_DATE_TIME ( #163, #165 ) ;
#6 = ORIENTED_EDGE ( 'NONE', *, *, #124, .T. ) ;
#7 = SECURITY_CLASSIFICATION_LEVEL ( 'unclassified' ) ;
#8 = ADVANCED_FACE ( 'NONE', ( #60 ), #71, .F. ) ;
#9 = SECURITY_CLASSIFICATION ( '', '', #7 ) ;
#10 = ORIENTED_EDGE ( 'NONE', *, *, #200, .F. ) ;
#11 = CLOSED_SHELL ( 'NONE', ( #144, #69, #110, #174, #8 ) ) ;
#12 = AXIS2_PLACEMENT_3D ( 'NONE', #104, #34, #154 ) ;
#13 = FACE_OUTER_BOUND ( 'NONE', #55, .T. ) ;
#14 = PRODUCT_RELATED_PRODUCT_CATEGORY ( 'detail', '', ( #185 ) ) ;
#15 = PRODUCT_DEFINITION_SHAPE ( 'NONE', 'NONE',  #108 ) ;
#16 = DIRECTION ( 'NONE',  ( 0.000000000000000000, 1.000000000000000000, -0.000000000000000000 ) ) ;
#17 = CARTESIAN_POINT ( 'NONE',  ( -6.349999999999999645, 0.000000000000000000, 6.000000000000000000 ) ) ;
#18 =( NAMED_UNIT ( * ) SI_UNIT ( $, .STERADIAN. ) SOLID_ANGLE_UNIT ( ) );
#19 = MECHANICAL_CONTEXT ( 'NONE', #112, 'mechanical' ) ;
#20 = PLANE ( 'NONE',  #141 ) ;
#21 = COORDINATED_UNIVERSAL_TIME_OFFSET ( 2, 0, .AHEAD. ) ;
#22 = CC_DESIGN_PERSON_AND_ORGANIZATION_ASSIGNMENT ( #190, #118, ( #108 ) ) ;
#23 = PERSON_AND_ORGANIZATION ( #116, #24 ) ;
#24 = ORGANIZATION ( 'UNSPECIFIED', 'UNSPECIFIED', '' ) ;
#25 = ORIENTED_EDGE ( 'NONE', *, *, #84, .T. ) ;
#26 = PERSON_AND_ORGANIZATION_ROLE ( 'design_supplier' ) ;
#27 = CALENDAR_DATE ( 2021, 25, 2 ) ;
#28 = ORIENTED_EDGE ( 'NONE', *, *, #151, .F. ) ;
#29 = ORIENTED_EDGE ( 'NONE', *, *, #124, .F. ) ;
#30 = CC_DESIGN_APPROVAL ( #57, ( #108 ) ) ;
#31 = UNCERTAINTY_MEASURE_WITH_UNIT (LENGTH_MEASURE( 1.000000000000000082E-05 ), #95, 'distance_accuracy_value', 'NONE');
#32 = CIRCLE ( 'NONE', #12, 6.349999999988691357 ) ;
#33 = CARTESIAN_POINT ( 'NONE',  ( 0.000000000000000000, 0.000000000000000000, 6.000000000000000000 ) ) ;
#34 = DIRECTION ( 'NONE',  ( -0.000000000000000000, -0.000000000000000000, -1.000000000000000000 ) ) ;
#35 = LOCAL_TIME ( 11, 29, 50.00000000000000000, #114 ) ;
#36 = ORIENTED_EDGE ( 'NONE', *, *, #65, .T. ) ;
#37 = EDGE_CURVE ( 'NONE', #136, #191, #92, .T. ) ;
#38 = AXIS2_PLACEMENT_3D ( 'NONE', #74, #166, #182 ) ;
#39 = CYLINDRICAL_SURFACE ( 'NONE', #194, 6.349999999999999645 ) ;
#40 = DIRECTION ( 'NONE',  ( 0.000000000000000000, 0.000000000000000000, 1.000000000000000000 ) ) ;
#41 = PERSON_AND_ORGANIZATION ( #116, #24 ) ;
#42 = CC_DESIGN_PERSON_AND_ORGANIZATION_ASSIGNMENT ( #23, #101, ( #185 ) ) ;
#43 = DATE_AND_TIME ( #188, #96 ) ;
#44 = AXIS2_PLACEMENT_3D ( 'NONE', #157, #158, #4 ) ;
#45 = DIRECTION ( 'NONE',  ( -1.000000000000000000, 0.000000000000000000, 0.000000000000000000 ) ) ;
#46 = DIRECTION ( 'NONE',  ( 0.000000000000000000, -1.000000000000000000, -0.000000000000000000 ) ) ;
#47 = DIRECTION ( 'NONE',  ( -0.000000000000000000, -0.000000000000000000, -1.000000000000000000 ) ) ;
#48 = ORIENTED_EDGE ( 'NONE', *, *, #121, .F. ) ;
#49 = LOCAL_TIME ( 11, 29, 50.00000000000000000, #21 ) ;
#50 = VECTOR ( 'NONE', #139, 1000.000000000000000 ) ;
#51 = DIRECTION ( 'NONE',  ( 1.224646799147353207E-16, -1.000000000000000000, 0.000000000000000000 ) ) ;
#52 = DATE_TIME_ROLE ( 'creation_date' ) ;
#53 = SHAPE_DEFINITION_REPRESENTATION ( #15, #83 ) ;
#54 = AXIS2_PLACEMENT_3D ( 'NONE', #128, #51, #113 ) ;
#55 = EDGE_LOOP ( 'NONE', ( #29, #75, #149, #161 ) ) ;
#56 = LOCAL_TIME ( 11, 29, 50.00000000000000000, #2 ) ;
#57 = APPROVAL ( #129, 'UNSPECIFIED' ) ;
#58 = VECTOR ( 'NONE', #107, 1000.000000000000000 ) ;
#59 = AXIS2_PLACEMENT_3D ( 'NONE', #63, #91, #183 ) ;
#60 = FACE_OUTER_BOUND ( 'NONE', #137, .T. ) ;
#61 = DIRECTION ( 'NONE',  ( -1.000000000000000000, 0.000000000000000000, 0.000000000000000000 ) ) ;
#62 = DIRECTION ( 'NONE',  ( -0.000000000000000000, -0.000000000000000000, -1.000000000000000000 ) ) ;
#63 = CARTESIAN_POINT ( 'NONE',  ( 2.463307335887066074E-13, 0.000000000000000000, 2005.989919349595084 ) ) ;
#64 = EDGE_CURVE ( 'NONE', #136, #105, #171, .T. ) ;
#65 = EDGE_CURVE ( 'NONE', #164, #191, #111, .T. ) ;
#66 = DATE_AND_TIME ( #146, #56 ) ;
#67 = APPROVAL_STATUS ( 'not_yet_approved' ) ;
#68 = APPROVAL_PERSON_ORGANIZATION ( #159, #57, #175 ) ;
#69 = ADVANCED_FACE ( 'NONE', ( #150 ), #39, .T. ) ;
#70 = ORIENTED_EDGE ( 'NONE', *, *, #37, .F. ) ;
#71 = SPHERICAL_SURFACE ( 'NONE', #59, 2000.000000000000000 ) ;
#72 = DESIGN_CONTEXT ( 'detailed design', #103, 'design' ) ;
#73 = CARTESIAN_POINT ( 'NONE',  ( 0.000000000000000000, 0.000000000000000000, 0.000000000000000000 ) ) ;
#74 = CARTESIAN_POINT ( 'NONE',  ( 2.463307335887066074E-13, 0.000000000000000000, 6.000000000000005329 ) ) ;
#75 = ORIENTED_EDGE ( 'NONE', *, *, #151, .T. ) ;
#76 = CYLINDRICAL_SURFACE ( 'NONE', #90, 6.349999999999999645 ) ;
#77 = CARTESIAN_POINT ( 'NONE',  ( 6.349999999999999645, 7.776507174585692163E-16, 0.000000000000000000 ) ) ;
#78 = DATE_TIME_ROLE ( 'classification_date' ) ;
#79 =( GEOMETRIC_REPRESENTATION_CONTEXT ( 3 ) GLOBAL_UNCERTAINTY_ASSIGNED_CONTEXT ( ( #31 ) ) GLOBAL_UNIT_ASSIGNED_CONTEXT ( ( #95, #172, #18 ) ) REPRESENTATION_CONTEXT ( 'NONE', 'WORKASPACE' ) );
#80 = AXIS2_PLACEMENT_3D ( 'NONE', #93, #152, #127 ) ;
#81 = DATE_AND_TIME ( #27, #49 ) ;
#82 = APPROVAL_STATUS ( 'not_yet_approved' ) ;
#83 = ADVANCED_BREP_SHAPE_REPRESENTATION ( '010-0125T6_N-BK7_PCV_window', ( #133, #44 ), #79 ) ;
#84 = EDGE_CURVE ( 'NONE', #105, #99, #193, .T. ) ;
#85 = APPROVAL_ROLE ( '' ) ;
#86 = CC_DESIGN_DATE_AND_TIME_ASSIGNMENT ( #43, #52, ( #108 ) ) ;
#87 = ORIENTED_EDGE ( 'NONE', *, *, #64, .T. ) ;
#88 = ORIENTED_EDGE ( 'NONE', *, *, #200, .T. ) ;
#89 = CARTESIAN_POINT ( 'NONE',  ( 3.687954135034419575E-13, 0.000000000000000000, 5.989919349595140829 ) ) ;
#90 = AXIS2_PLACEMENT_3D ( 'NONE', #94, #47, #45 ) ;
#91 = DIRECTION ( 'NONE',  ( 0.000000000000000000, -1.000000000000000000, -0.000000000000000000 ) ) ;
#92 = LINE ( 'NONE', #17, #58 ) ;
#93 = CARTESIAN_POINT ( 'NONE',  ( 0.000000000000000000, 0.000000000000000000, 0.000000000000000000 ) ) ;
#94 = CARTESIAN_POINT ( 'NONE',  ( 0.000000000000000000, 0.000000000000000000, 6.000000000000000000 ) ) ;
#95 =( LENGTH_UNIT ( ) NAMED_UNIT ( * ) SI_UNIT ( .MILLI., .METRE. ) );
#96 = LOCAL_TIME ( 11, 29, 50.00000000000000000, #102 ) ;
#97 = PERSON_AND_ORGANIZATION_ROLE ( 'classification_officer' ) ;
#98 = CALENDAR_DATE ( 2021, 25, 2 ) ;
#99 = VERTEX_POINT ( 'NONE', #89 ) ;
#100 = APPLICATION_PROTOCOL_DEFINITION ( 'international standard', 'config_control_design', 1994, #103 ) ;
#101 = PERSON_AND_ORGANIZATION_ROLE ( 'design_owner' ) ;
#102 = COORDINATED_UNIVERSAL_TIME_OFFSET ( 2, 0, .AHEAD. ) ;
#103 = APPLICATION_CONTEXT ( 'configuration controlled 3d designs of mechanical parts and assemblies' ) ;
#104 = CARTESIAN_POINT ( 'NONE',  ( 2.463307335887066074E-13, 0.000000000000000000, 6.000000000000005329 ) ) ;
#105 = VERTEX_POINT ( 'NONE', #109 ) ;
#106 = DIRECTION ( 'NONE',  ( 1.000000000000000000, 0.000000000000000000, 0.000000000000000000 ) ) ;
#107 = DIRECTION ( 'NONE',  ( -0.000000000000000000, -0.000000000000000000, -1.000000000000000000 ) ) ;
#108 = PRODUCT_DEFINITION ( 'UNKNOWN', '', #192, #72 ) ;
#109 = CARTESIAN_POINT ( 'NONE',  ( 6.349999999988937383, 7.776507174578918806E-16, 6.000000000000005329 ) ) ;
#110 = ADVANCED_FACE ( 'NONE', ( #13 ), #76, .T. ) ;
#111 = CIRCLE ( 'NONE', #80, 6.349999999999999645 ) ;
#112 = APPLICATION_CONTEXT ( 'configuration controlled 3d designs of mechanical parts and assemblies' ) ;
#113 = DIRECTION ( 'NONE',  ( 1.000000000000000000, 1.224646799147353207E-16, 0.000000000000000000 ) ) ;
#114 = COORDINATED_UNIVERSAL_TIME_OFFSET ( 2, 0, .AHEAD. ) ;
#115 = APPROVAL ( #67, 'UNSPECIFIED' ) ;
#116 = PERSON ( 'UNSPECIFIED', 'UNSPECIFIED', 'UNSPECIFIED', ('UNSPECIFIED'), ('UNSPECIFIED'), ('UNSPECIFIED') ) ;
#117 = AXIS2_PLACEMENT_3D ( 'NONE', #126, #16, #184 ) ;
#118 = PERSON_AND_ORGANIZATION_ROLE ( 'creator' ) ;
#119 = ORIENTED_EDGE ( 'NONE', *, *, #65, .F. ) ;
#120 = APPROVAL_PERSON_ORGANIZATION ( #41, #165, #162 ) ;
#121 = EDGE_CURVE ( 'NONE', #191, #164, #186, .T. ) ;
#122 = CIRCLE ( 'NONE', #54, 2000.000000000000000 ) ;
#123 = LINE ( 'NONE', #170, #50 ) ;
#124 = EDGE_CURVE ( 'NONE', #105, #164, #123, .T. ) ;
#125 = FACE_OUTER_BOUND ( 'NONE', #198, .T. ) ;
#126 = CARTESIAN_POINT ( 'NONE',  ( 2.463307335887066074E-13, 0.000000000000000000, 2005.989919349595084 ) ) ;
#127 = DIRECTION ( 'NONE',  ( 1.000000000000000000, 0.000000000000000000, 0.000000000000000000 ) ) ;
#128 = CARTESIAN_POINT ( 'NONE',  ( 2.463307335887066074E-13, 0.000000000000000000, 2005.989919349595084 ) ) ;
#129 = APPROVAL_STATUS ( 'not_yet_approved' ) ;
#130 = CC_DESIGN_PERSON_AND_ORGANIZATION_ASSIGNMENT ( #179, #26, ( #192 ) ) ;
#131 = DATE_AND_TIME ( #189, #176 ) ;
#132 = APPROVAL_DATE_TIME ( #66, #115 ) ;
#133 = MANIFOLD_SOLID_BREP ( 'Cut-Revolve1', #11 ) ;
#134 = EDGE_LOOP ( 'NONE', ( #48, #119 ) ) ;
#135 = PERSON_AND_ORGANIZATION ( #116, #24 ) ;
#136 = VERTEX_POINT ( 'NONE', #153 ) ;
#137 = EDGE_LOOP ( 'NONE', ( #10, #28, #25 ) ) ;
#138 = ORIENTED_EDGE ( 'NONE', *, *, #64, .F. ) ;
#139 = DIRECTION ( 'NONE',  ( -0.000000000000000000, -0.000000000000000000, -1.000000000000000000 ) ) ;
#140 = FACE_OUTER_BOUND ( 'NONE', #134, .T. ) ;
#141 = AXIS2_PLACEMENT_3D ( 'NONE', #201, #40, #187 ) ;
#142 = CC_DESIGN_APPROVAL ( #165, ( #192 ) ) ;
#143 = PERSON_AND_ORGANIZATION ( #116, #24 ) ;
#144 = ADVANCED_FACE ( 'NONE', ( #125 ), #181, .F. ) ;
#145 = PERSON_AND_ORGANIZATION ( #116, #24 ) ;
#146 = CALENDAR_DATE ( 2021, 25, 2 ) ;
#147 = PERSON_AND_ORGANIZATION_ROLE ( 'creator' ) ;
#148 = APPROVAL_PERSON_ORGANIZATION ( #143, #115, #85 ) ;
#149 = ORIENTED_EDGE ( 'NONE', *, *, #37, .T. ) ;
#150 = FACE_OUTER_BOUND ( 'NONE', #180, .T. ) ;
#151 = EDGE_CURVE ( 'NONE', #105, #136, #32, .T. ) ;
#152 = DIRECTION ( 'NONE',  ( 0.000000000000000000, 0.000000000000000000, 1.000000000000000000 ) ) ;
#153 = CARTESIAN_POINT ( 'NONE',  ( -6.349999999988444443, 0.000000000000000000, 6.000000000000005329 ) ) ;
#154 = DIRECTION ( 'NONE',  ( 1.000000000000000000, 0.000000000000000000, 0.000000000000000000 ) ) ;
#155 = APPLICATION_PROTOCOL_DEFINITION ( 'international standard', 'config_control_design', 1994, #112 ) ;
#156 = CC_DESIGN_PERSON_AND_ORGANIZATION_ASSIGNMENT ( #145, #147, ( #192 ) ) ;
#157 = CARTESIAN_POINT ( 'NONE',  ( 0.000000000000000000, 0.000000000000000000, 0.000000000000000000 ) ) ;
#158 = DIRECTION ( 'NONE',  ( 0.000000000000000000, 0.000000000000000000, 1.000000000000000000 ) ) ;
#159 = PERSON_AND_ORGANIZATION ( #116, #24 ) ;
#160 = AXIS2_PLACEMENT_3D ( 'NONE', #73, #196, #168 ) ;
#161 = ORIENTED_EDGE ( 'NONE', *, *, #121, .T. ) ;
#162 = APPROVAL_ROLE ( '' ) ;
#163 = DATE_AND_TIME ( #98, #35 ) ;
#164 = VERTEX_POINT ( 'NONE', #77 ) ;
#165 = APPROVAL ( #82, 'UNSPECIFIED' ) ;
#166 = DIRECTION ( 'NONE',  ( -0.000000000000000000, -0.000000000000000000, -1.000000000000000000 ) ) ;
#167 = ORIENTED_EDGE ( 'NONE', *, *, #84, .F. ) ;
#168 = DIRECTION ( 'NONE',  ( 1.000000000000000000, 0.000000000000000000, 0.000000000000000000 ) ) ;
#169 = CC_DESIGN_SECURITY_CLASSIFICATION ( #9, ( #192 ) ) ;
#170 = CARTESIAN_POINT ( 'NONE',  ( 6.349999999999999645, 7.776507174585692163E-16, 6.000000000000000000 ) ) ;
#171 = CIRCLE ( 'NONE', #38, 6.349999999988691357 ) ;
#172 =( NAMED_UNIT ( * ) PLANE_ANGLE_UNIT ( ) SI_UNIT ( $, .RADIAN. ) );
#173 = CARTESIAN_POINT ( 'NONE',  ( -6.349999999999999645, 0.000000000000000000, 0.000000000000000000 ) ) ;
#174 = ADVANCED_FACE ( 'NONE', ( #140 ), #20, .F. ) ;
#175 = APPROVAL_ROLE ( '' ) ;
#176 = LOCAL_TIME ( 11, 29, 50.00000000000000000, #177 ) ;
#177 = COORDINATED_UNIVERSAL_TIME_OFFSET ( 2, 0, .AHEAD. ) ;
#178 = APPROVAL_DATE_TIME ( #131, #57 ) ;
#179 = PERSON_AND_ORGANIZATION ( #116, #24 ) ;
#180 = EDGE_LOOP ( 'NONE', ( #87, #6, #36, #70 ) ) ;
#181 = SPHERICAL_SURFACE ( 'NONE', #1, 2000.000000000000000 ) ;
#182 = DIRECTION ( 'NONE',  ( 1.000000000000000000, 0.000000000000000000, 0.000000000000000000 ) ) ;
#183 = DIRECTION ( 'NONE',  ( 1.000000000000000000, 0.000000000000000000, 0.000000000000000000 ) ) ;
#184 = DIRECTION ( 'NONE',  ( 0.000000000000000000, 0.000000000000000000, 1.000000000000000000 ) ) ;
#185 = PRODUCT ( '010-0125T6_N-BK7_PCV_window', '010-0125T6_N-BK7_PCV_window', '', ( #19 ) ) ;
#186 = CIRCLE ( 'NONE', #160, 6.349999999999999645 ) ;
#187 = DIRECTION ( 'NONE',  ( 1.000000000000000000, 0.000000000000000000, -0.000000000000000000 ) ) ;
#188 = CALENDAR_DATE ( 2021, 25, 2 ) ;
#189 = CALENDAR_DATE ( 2021, 25, 2 ) ;
#190 = PERSON_AND_ORGANIZATION ( #116, #24 ) ;
#191 = VERTEX_POINT ( 'NONE', #173 ) ;
#192 = PRODUCT_DEFINITION_FORMATION_WITH_SPECIFIED_SOURCE ( 'ANY', '', #185, .NOT_KNOWN. ) ;
#193 = CIRCLE ( 'NONE', #117, 2000.000000000000000 ) ;
#194 = AXIS2_PLACEMENT_3D ( 'NONE', #33, #62, #61 ) ;
#195 = CARTESIAN_POINT ( 'NONE',  ( 2.463307335887066074E-13, 0.000000000000000000, 2005.989919349595084 ) ) ;
#196 = DIRECTION ( 'NONE',  ( 0.000000000000000000, 0.000000000000000000, 1.000000000000000000 ) ) ;
#197 = CC_DESIGN_DATE_AND_TIME_ASSIGNMENT ( #81, #78, ( #9 ) ) ;
#198 = EDGE_LOOP ( 'NONE', ( #138, #88, #167 ) ) ;
#199 = CC_DESIGN_APPROVAL ( #115, ( #9 ) ) ;
#200 = EDGE_CURVE ( 'NONE', #136, #99, #122, .T. ) ;
#201 = CARTESIAN_POINT ( 'NONE',  ( 0.000000000000000000, 0.000000000000000000, 0.000000000000000000 ) ) ;
ENDSEC;
END-ISO-10303-21;
