ISO-10303-21;
HEADER;
FILE_DESCRIPTION (( 'STEP AP203' ),
    '1' );
FILE_NAME ('010-0125E_N-BK7_PCV_window.STEP',
    '2021-02-25T08:24:46',
    ( '' ),
    ( '' ),
    'SwSTEP 2.0',
    'SolidWorks 2019',
    '' );
FILE_SCHEMA (( 'CONFIG_CONTROL_DESIGN' ));
ENDSEC;

DATA;
#1 = PRODUCT ( '010-0125E_N-BK7_PCV_window', '010-0125E_N-BK7_PCV_window', '', ( #167 ) ) ;
#2 = CARTESIAN_POINT ( 'NONE',  ( 0.000000000000000000, 0.000000000000000000, 0.000000000000000000 ) ) ;
#3 = PERSON_AND_ORGANIZATION ( #90, #156 ) ;
#4 = APPROVAL_STATUS ( 'not_yet_approved' ) ;
#5 = SHAPE_DEFINITION_REPRESENTATION ( #22, #81 ) ;
#6 = ORIENTED_EDGE ( 'NONE', *, *, #169, .T. ) ;
#7 = PERSON_AND_ORGANIZATION ( #90, #156 ) ;
#8 = ORIENTED_EDGE ( 'NONE', *, *, #52, .T. ) ;
#9 = VERTEX_POINT ( 'NONE', #63 ) ;
#10 = CARTESIAN_POINT ( 'NONE',  ( -6.349999999999999645, 0.000000000000000000, 3.000000000000000000 ) ) ;
#11 = EDGE_CURVE ( 'NONE', #109, #59, #77, .T. ) ;
#12 = AXIS2_PLACEMENT_3D ( 'NONE', #121, #42, #191 ) ;
#13 = AXIS2_PLACEMENT_3D ( 'NONE', #198, #111, #58 ) ;
#14 = DIRECTION ( 'NONE',  ( 0.000000000000000000, 0.000000000000000000, 1.000000000000000000 ) ) ;
#15 = CIRCLE ( 'NONE', #13, 6.349999999988691357 ) ;
#16 = CC_DESIGN_PERSON_AND_ORGANIZATION_ASSIGNMENT ( #7, #117, ( #50 ) ) ;
#17 = CARTESIAN_POINT ( 'NONE',  ( 0.000000000000000000, 0.000000000000000000, 0.000000000000000000 ) ) ;
#18 = COORDINATED_UNIVERSAL_TIME_OFFSET ( 2, 0, .AHEAD. ) ;
#19 = PERSON_AND_ORGANIZATION ( #90, #156 ) ;
#20 = EDGE_LOOP ( 'NONE', ( #195, #24 ) ) ;
#21 = COORDINATED_UNIVERSAL_TIME_OFFSET ( 2, 0, .AHEAD. ) ;
#22 = PRODUCT_DEFINITION_SHAPE ( 'NONE', 'NONE',  #194 ) ;
#23 = CALENDAR_DATE ( 2021, 25, 2 ) ;
#24 = ORIENTED_EDGE ( 'NONE', *, *, #140, .F. ) ;
#25 = VERTEX_POINT ( 'NONE', #199 ) ;
#26 = PRODUCT_RELATED_PRODUCT_CATEGORY ( 'detail', '', ( #1 ) ) ;
#27 = APPLICATION_CONTEXT ( 'configuration controlled 3d designs of mechanical parts and assemblies' ) ;
#28 = ORIENTED_EDGE ( 'NONE', *, *, #132, .F. ) ;
#29 = CYLINDRICAL_SURFACE ( 'NONE', #31, 6.349999999999999645 ) ;
#30 = DIRECTION ( 'NONE',  ( 1.000000000000000000, 0.000000000000000000, 0.000000000000000000 ) ) ;
#31 = AXIS2_PLACEMENT_3D ( 'NONE', #187, #104, #125 ) ;
#32 = APPROVAL_PERSON_ORGANIZATION ( #35, #118, #164 ) ;
#33 = CC_DESIGN_PERSON_AND_ORGANIZATION_ASSIGNMENT ( #154, #166, ( #97 ) ) ;
#34 = APPROVAL_DATE_TIME ( #101, #110 ) ;
#35 = PERSON_AND_ORGANIZATION ( #90, #156 ) ;
#36 = APPROVAL_DATE_TIME ( #102, #56 ) ;
#37 = AXIS2_PLACEMENT_3D ( 'NONE', #2, #14, #64 ) ;
#38 = PERSON_AND_ORGANIZATION_ROLE ( 'design_owner' ) ;
#39 = SECURITY_CLASSIFICATION_LEVEL ( 'unclassified' ) ;
#40 = VECTOR ( 'NONE', #192, 1000.000000000000000 ) ;
#41 = APPROVAL_PERSON_ORGANIZATION ( #19, #56, #72 ) ;
#42 = DIRECTION ( 'NONE',  ( 0.000000000000000000, 0.000000000000000000, 1.000000000000000000 ) ) ;
#43 = ORIENTED_EDGE ( 'NONE', *, *, #158, .T. ) ;
#44 = DIRECTION ( 'NONE',  ( 0.000000000000000000, 0.000000000000000000, 1.000000000000000000 ) ) ;
#45 = ORIENTED_EDGE ( 'NONE', *, *, #162, .F. ) ;
#46 = CIRCLE ( 'NONE', #12, 6.349999999999999645 ) ;
#47 = FACE_OUTER_BOUND ( 'NONE', #61, .T. ) ;
#48 = VERTEX_POINT ( 'NONE', #49 ) ;
#49 = CARTESIAN_POINT ( 'NONE',  ( 6.349999999988937383, 7.776507174578918806E-16, 2.999999999999891642 ) ) ;
#50 = SECURITY_CLASSIFICATION ( '', '', #39 ) ;
#51 =( NAMED_UNIT ( * ) SI_UNIT ( $, .STERADIAN. ) SOLID_ANGLE_UNIT ( ) );
#52 = EDGE_CURVE ( 'NONE', #109, #48, #134, .T. ) ;
#53 = CARTESIAN_POINT ( 'NONE',  ( 2.463307335887066074E-13, 0.000000000000000000, 2002.989919349595084 ) ) ;
#54 = DIRECTION ( 'NONE',  ( 1.000000000000000000, 0.000000000000000000, 0.000000000000000000 ) ) ;
#55 = APPLICATION_PROTOCOL_DEFINITION ( 'international standard', 'config_control_design', 1994, #168 ) ;
#56 = APPROVAL ( #155, 'UNSPECIFIED' ) ;
#57 = COORDINATED_UNIVERSAL_TIME_OFFSET ( 2, 0, .AHEAD. ) ;
#58 = DIRECTION ( 'NONE',  ( 1.000000000000000000, 0.000000000000000000, 0.000000000000000000 ) ) ;
#59 = VERTEX_POINT ( 'NONE', #122 ) ;
#60 = DIRECTION ( 'NONE',  ( -0.000000000000000000, -0.000000000000000000, -1.000000000000000000 ) ) ;
#61 = EDGE_LOOP ( 'NONE', ( #173, #137, #106, #188 ) ) ;
#62 = LOCAL_TIME ( 10, 24, 46.00000000000000000, #18 ) ;
#63 = CARTESIAN_POINT ( 'NONE',  ( 3.687954135034419575E-13, 0.000000000000000000, 2.989919349595027143 ) ) ;
#64 = DIRECTION ( 'NONE',  ( 1.000000000000000000, 0.000000000000000000, 0.000000000000000000 ) ) ;
#65 = SPHERICAL_SURFACE ( 'NONE', #196, 2000.000000000000000 ) ;
#66 = CC_DESIGN_APPROVAL ( #56, ( #50 ) ) ;
#67 = DIRECTION ( 'NONE',  ( 1.224646799147353207E-16, -1.000000000000000000, 0.000000000000000000 ) ) ;
#68 = ADVANCED_FACE ( 'NONE', ( #92 ), #82, .F. ) ;
#69 = AXIS2_PLACEMENT_3D ( 'NONE', #53, #128, #144 ) ;
#70 = CC_DESIGN_SECURITY_CLASSIFICATION ( #50, ( #97 ) ) ;
#71 = CALENDAR_DATE ( 2021, 25, 2 ) ;
#72 = APPROVAL_ROLE ( '' ) ;
#73 = MANIFOLD_SOLID_BREP ( 'Cut-Revolve1', #103 ) ;
#74 = DATE_TIME_ROLE ( 'classification_date' ) ;
#75 = CC_DESIGN_APPROVAL ( #110, ( #194 ) ) ;
#76 = CC_DESIGN_DATE_AND_TIME_ASSIGNMENT ( #180, #179, ( #194 ) ) ;
#77 = LINE ( 'NONE', #10, #184 ) ;
#78 = CIRCLE ( 'NONE', #120, 2000.000000000000000 ) ;
#79 = CARTESIAN_POINT ( 'NONE',  ( 0.000000000000000000, 0.000000000000000000, 3.000000000000000000 ) ) ;
#80 = ORIENTED_EDGE ( 'NONE', *, *, #11, .F. ) ;
#81 = ADVANCED_BREP_SHAPE_REPRESENTATION ( '010-0125E_N-BK7_PCV_window', ( #73, #146 ), #93 ) ;
#82 = PLANE ( 'NONE',  #99 ) ;
#83 = DIRECTION ( 'NONE',  ( 0.000000000000000000, -1.000000000000000000, -0.000000000000000000 ) ) ;
#84 = CC_DESIGN_PERSON_AND_ORGANIZATION_ASSIGNMENT ( #170, #182, ( #97 ) ) ;
#85 = AXIS2_PLACEMENT_3D ( 'NONE', #143, #94, #159 ) ;
#86 = DATE_AND_TIME ( #87, #62 ) ;
#87 = CALENDAR_DATE ( 2021, 25, 2 ) ;
#88 = DATE_AND_TIME ( #153, #108 ) ;
#89 = ADVANCED_FACE ( 'NONE', ( #47 ), #29, .T. ) ;
#90 = PERSON ( 'UNSPECIFIED', 'UNSPECIFIED', 'UNSPECIFIED', ('UNSPECIFIED'), ('UNSPECIFIED'), ('UNSPECIFIED') ) ;
#91 = APPROVAL_DATE_TIME ( #86, #118 ) ;
#92 = FACE_OUTER_BOUND ( 'NONE', #20, .T. ) ;
#93 =( GEOMETRIC_REPRESENTATION_CONTEXT ( 3 ) GLOBAL_UNCERTAINTY_ASSIGNED_CONTEXT ( ( #123 ) ) GLOBAL_UNIT_ASSIGNED_CONTEXT ( ( #112, #147, #51 ) ) REPRESENTATION_CONTEXT ( 'NONE', 'WORKASPACE' ) );
#94 = DIRECTION ( 'NONE',  ( -0.000000000000000000, -0.000000000000000000, -1.000000000000000000 ) ) ;
#95 = ADVANCED_FACE ( 'NONE', ( #105 ), #200, .T. ) ;
#96 = FACE_OUTER_BOUND ( 'NONE', #142, .T. ) ;
#97 = PRODUCT_DEFINITION_FORMATION_WITH_SPECIFIED_SOURCE ( 'ANY', '', #1, .NOT_KNOWN. ) ;
#98 = PERSON_AND_ORGANIZATION ( #90, #156 ) ;
#99 = AXIS2_PLACEMENT_3D ( 'NONE', #141, #44, #138 ) ;
#100 = ORIENTED_EDGE ( 'NONE', *, *, #52, .F. ) ;
#101 = DATE_AND_TIME ( #116, #136 ) ;
#102 = DATE_AND_TIME ( #23, #165 ) ;
#103 = CLOSED_SHELL ( 'NONE', ( #189, #95, #89, #68, #176 ) ) ;
#104 = DIRECTION ( 'NONE',  ( -0.000000000000000000, -0.000000000000000000, -1.000000000000000000 ) ) ;
#105 = FACE_OUTER_BOUND ( 'NONE', #124, .T. ) ;
#106 = ORIENTED_EDGE ( 'NONE', *, *, #11, .T. ) ;
#107 = CIRCLE ( 'NONE', #37, 6.349999999999999645 ) ;
#108 = LOCAL_TIME ( 10, 24, 46.00000000000000000, #119 ) ;
#109 = VERTEX_POINT ( 'NONE', #127 ) ;
#110 = APPROVAL ( #163, 'UNSPECIFIED' ) ;
#111 = DIRECTION ( 'NONE',  ( -0.000000000000000000, -0.000000000000000000, -1.000000000000000000 ) ) ;
#112 =( LENGTH_UNIT ( ) NAMED_UNIT ( * ) SI_UNIT ( .MILLI., .METRE. ) );
#113 = CARTESIAN_POINT ( 'NONE',  ( 2.463307335887066074E-13, 0.000000000000000000, 2002.989919349595084 ) ) ;
#114 = APPLICATION_PROTOCOL_DEFINITION ( 'international standard', 'config_control_design', 1994, #27 ) ;
#115 = PERSON_AND_ORGANIZATION ( #90, #156 ) ;
#116 = CALENDAR_DATE ( 2021, 25, 2 ) ;
#117 = PERSON_AND_ORGANIZATION_ROLE ( 'classification_officer' ) ;
#118 = APPROVAL ( #4, 'UNSPECIFIED' ) ;
#119 = COORDINATED_UNIVERSAL_TIME_OFFSET ( 2, 0, .AHEAD. ) ;
#120 = AXIS2_PLACEMENT_3D ( 'NONE', #113, #67, #175 ) ;
#121 = CARTESIAN_POINT ( 'NONE',  ( 0.000000000000000000, 0.000000000000000000, 0.000000000000000000 ) ) ;
#122 = CARTESIAN_POINT ( 'NONE',  ( -6.349999999999999645, 0.000000000000000000, 0.000000000000000000 ) ) ;
#123 = UNCERTAINTY_MEASURE_WITH_UNIT (LENGTH_MEASURE( 1.000000000000000082E-05 ), #112, 'distance_accuracy_value', 'NONE');
#124 = EDGE_LOOP ( 'NONE', ( #8, #43, #197, #80 ) ) ;
#125 = DIRECTION ( 'NONE',  ( -1.000000000000000000, 0.000000000000000000, 0.000000000000000000 ) ) ;
#126 = CC_DESIGN_PERSON_AND_ORGANIZATION_ASSIGNMENT ( #3, #152, ( #194 ) ) ;
#127 = CARTESIAN_POINT ( 'NONE',  ( -6.349999999988444443, 0.000000000000000000, 2.999999999999891642 ) ) ;
#128 = DIRECTION ( 'NONE',  ( 0.000000000000000000, 1.000000000000000000, -0.000000000000000000 ) ) ;
#129 = AXIS2_PLACEMENT_3D ( 'NONE', #79, #157, #139 ) ;
#130 = DIRECTION ( 'NONE',  ( 1.000000000000000000, 0.000000000000000000, 0.000000000000000000 ) ) ;
#131 = DIRECTION ( 'NONE',  ( 0.000000000000000000, -1.000000000000000000, -0.000000000000000000 ) ) ;
#132 = EDGE_CURVE ( 'NONE', #48, #109, #15, .T. ) ;
#133 = LINE ( 'NONE', #148, #40 ) ;
#134 = CIRCLE ( 'NONE', #85, 6.349999999988691357 ) ;
#135 = DIRECTION ( 'NONE',  ( 0.000000000000000000, 0.000000000000000000, 1.000000000000000000 ) ) ;
#136 = LOCAL_TIME ( 10, 24, 46.00000000000000000, #178 ) ;
#137 = ORIENTED_EDGE ( 'NONE', *, *, #132, .T. ) ;
#138 = DIRECTION ( 'NONE',  ( 1.000000000000000000, 0.000000000000000000, -0.000000000000000000 ) ) ;
#139 = DIRECTION ( 'NONE',  ( -1.000000000000000000, 0.000000000000000000, 0.000000000000000000 ) ) ;
#140 = EDGE_CURVE ( 'NONE', #25, #59, #46, .T. ) ;
#141 = CARTESIAN_POINT ( 'NONE',  ( 0.000000000000000000, 0.000000000000000000, 0.000000000000000000 ) ) ;
#142 = EDGE_LOOP ( 'NONE', ( #100, #6, #45 ) ) ;
#143 = CARTESIAN_POINT ( 'NONE',  ( 2.463307335887066074E-13, 0.000000000000000000, 2.999999999999891642 ) ) ;
#144 = DIRECTION ( 'NONE',  ( 0.000000000000000000, 0.000000000000000000, 1.000000000000000000 ) ) ;
#145 = FACE_OUTER_BOUND ( 'NONE', #190, .T. ) ;
#146 = AXIS2_PLACEMENT_3D ( 'NONE', #17, #135, #54 ) ;
#147 =( NAMED_UNIT ( * ) PLANE_ANGLE_UNIT ( ) SI_UNIT ( $, .RADIAN. ) );
#148 = CARTESIAN_POINT ( 'NONE',  ( 6.349999999999999645, 7.776507174585692163E-16, 3.000000000000000000 ) ) ;
#149 = CC_DESIGN_PERSON_AND_ORGANIZATION_ASSIGNMENT ( #98, #38, ( #1 ) ) ;
#150 = CARTESIAN_POINT ( 'NONE',  ( 2.463307335887066074E-13, 0.000000000000000000, 2002.989919349595084 ) ) ;
#151 = APPROVAL_ROLE ( '' ) ;
#152 = PERSON_AND_ORGANIZATION_ROLE ( 'creator' ) ;
#153 = CALENDAR_DATE ( 2021, 25, 2 ) ;
#154 = PERSON_AND_ORGANIZATION ( #90, #156 ) ;
#155 = APPROVAL_STATUS ( 'not_yet_approved' ) ;
#156 = ORGANIZATION ( 'UNSPECIFIED', 'UNSPECIFIED', '' ) ;
#157 = DIRECTION ( 'NONE',  ( -0.000000000000000000, -0.000000000000000000, -1.000000000000000000 ) ) ;
#158 = EDGE_CURVE ( 'NONE', #48, #25, #133, .T. ) ;
#159 = DIRECTION ( 'NONE',  ( 1.000000000000000000, 0.000000000000000000, 0.000000000000000000 ) ) ;
#160 = CARTESIAN_POINT ( 'NONE',  ( 2.463307335887066074E-13, 0.000000000000000000, 2002.989919349595084 ) ) ;
#161 = CIRCLE ( 'NONE', #69, 2000.000000000000000 ) ;
#162 = EDGE_CURVE ( 'NONE', #48, #9, #161, .T. ) ;
#163 = APPROVAL_STATUS ( 'not_yet_approved' ) ;
#164 = APPROVAL_ROLE ( '' ) ;
#165 = LOCAL_TIME ( 10, 24, 46.00000000000000000, #57 ) ;
#166 = PERSON_AND_ORGANIZATION_ROLE ( 'creator' ) ;
#167 = MECHANICAL_CONTEXT ( 'NONE', #27, 'mechanical' ) ;
#168 = APPLICATION_CONTEXT ( 'configuration controlled 3d designs of mechanical parts and assemblies' ) ;
#169 = EDGE_CURVE ( 'NONE', #109, #9, #78, .T. ) ;
#170 = PERSON_AND_ORGANIZATION ( #90, #156 ) ;
#171 = ORIENTED_EDGE ( 'NONE', *, *, #169, .F. ) ;
#172 = APPROVAL_PERSON_ORGANIZATION ( #115, #110, #151 ) ;
#173 = ORIENTED_EDGE ( 'NONE', *, *, #158, .F. ) ;
#174 = AXIS2_PLACEMENT_3D ( 'NONE', #160, #131, #30 ) ;
#175 = DIRECTION ( 'NONE',  ( 1.000000000000000000, 1.224646799147353207E-16, 0.000000000000000000 ) ) ;
#176 = ADVANCED_FACE ( 'NONE', ( #145 ), #177, .F. ) ;
#177 = SPHERICAL_SURFACE ( 'NONE', #174, 2000.000000000000000 ) ;
#178 = COORDINATED_UNIVERSAL_TIME_OFFSET ( 2, 0, .AHEAD. ) ;
#179 = DATE_TIME_ROLE ( 'creation_date' ) ;
#180 = DATE_AND_TIME ( #71, #186 ) ;
#181 = EDGE_CURVE ( 'NONE', #59, #25, #107, .T. ) ;
#182 = PERSON_AND_ORGANIZATION_ROLE ( 'design_supplier' ) ;
#183 = DESIGN_CONTEXT ( 'detailed design', #168, 'design' ) ;
#184 = VECTOR ( 'NONE', #60, 1000.000000000000000 ) ;
#185 = ORIENTED_EDGE ( 'NONE', *, *, #162, .T. ) ;
#186 = LOCAL_TIME ( 10, 24, 46.00000000000000000, #21 ) ;
#187 = CARTESIAN_POINT ( 'NONE',  ( 0.000000000000000000, 0.000000000000000000, 3.000000000000000000 ) ) ;
#188 = ORIENTED_EDGE ( 'NONE', *, *, #181, .T. ) ;
#189 = ADVANCED_FACE ( 'NONE', ( #96 ), #65, .F. ) ;
#190 = EDGE_LOOP ( 'NONE', ( #171, #28, #185 ) ) ;
#191 = DIRECTION ( 'NONE',  ( 1.000000000000000000, 0.000000000000000000, 0.000000000000000000 ) ) ;
#192 = DIRECTION ( 'NONE',  ( -0.000000000000000000, -0.000000000000000000, -1.000000000000000000 ) ) ;
#193 = CC_DESIGN_APPROVAL ( #118, ( #97 ) ) ;
#194 = PRODUCT_DEFINITION ( 'UNKNOWN', '', #97, #183 ) ;
#195 = ORIENTED_EDGE ( 'NONE', *, *, #181, .F. ) ;
#196 = AXIS2_PLACEMENT_3D ( 'NONE', #150, #83, #130 ) ;
#197 = ORIENTED_EDGE ( 'NONE', *, *, #140, .T. ) ;
#198 = CARTESIAN_POINT ( 'NONE',  ( 2.463307335887066074E-13, 0.000000000000000000, 2.999999999999891642 ) ) ;
#199 = CARTESIAN_POINT ( 'NONE',  ( 6.349999999999999645, 7.776507174585692163E-16, 0.000000000000000000 ) ) ;
#200 = CYLINDRICAL_SURFACE ( 'NONE', #129, 6.349999999999999645 ) ;
#201 = CC_DESIGN_DATE_AND_TIME_ASSIGNMENT ( #88, #74, ( #50 ) ) ;
ENDSEC;
END-ISO-10303-21;
