ISO-10303-21;
HEADER;
FILE_DESCRIPTION (( 'STEP AP203' ),
    '1' );
FILE_NAME ('010-0123T6_N-BK7_PCV_window.STEP',
    '2021-02-25T09:29:20',
    ( '' ),
    ( '' ),
    'SwSTEP 2.0',
    'SolidWorks 2019',
    '' );
FILE_SCHEMA (( 'CONFIG_CONTROL_DESIGN' ));
ENDSEC;

DATA;
#1 = DIRECTION ( 'NONE',  ( 0.000000000000000000, 1.000000000000000000, -0.000000000000000000 ) ) ;
#2 = APPROVAL_ROLE ( '' ) ;
#3 = LINE ( 'NONE', #50, #52 ) ;
#4 = APPROVAL_STATUS ( 'not_yet_approved' ) ;
#5 = CYLINDRICAL_SURFACE ( 'NONE', #154, 6.349999999999999645 ) ;
#6 = CALENDAR_DATE ( 2021, 25, 2 ) ;
#7 = DIRECTION ( 'NONE',  ( -0.000000000000000000, -0.000000000000000000, -1.000000000000000000 ) ) ;
#8 = DATE_AND_TIME ( #124, #158 ) ;
#9 = VERTEX_POINT ( 'NONE', #142 ) ;
#10 = ORIENTED_EDGE ( 'NONE', *, *, #116, .T. ) ;
#11 = CC_DESIGN_APPROVAL ( #81, ( #184 ) ) ;
#12 = ORIENTED_EDGE ( 'NONE', *, *, #131, .F. ) ;
#13 = VERTEX_POINT ( 'NONE', #27 ) ;
#14 = DIRECTION ( 'NONE',  ( 0.000000000000000000, 0.000000000000000000, 1.000000000000000000 ) ) ;
#15 = DATE_AND_TIME ( #106, #195 ) ;
#16 = PERSON_AND_ORGANIZATION_ROLE ( 'creator' ) ;
#17 = FACE_OUTER_BOUND ( 'NONE', #182, .T. ) ;
#18 = PERSON_AND_ORGANIZATION ( #71, #79 ) ;
#19 = SECURITY_CLASSIFICATION ( '', '', #118 ) ;
#20 = DATE_TIME_ROLE ( 'creation_date' ) ;
#21 = ORIENTED_EDGE ( 'NONE', *, *, #127, .F. ) ;
#22 = COORDINATED_UNIVERSAL_TIME_OFFSET ( 2, 0, .AHEAD. ) ;
#23 = AXIS2_PLACEMENT_3D ( 'NONE', #51, #181, #192 ) ;
#24 = PERSON_AND_ORGANIZATION ( #71, #79 ) ;
#25 = CC_DESIGN_PERSON_AND_ORGANIZATION_ASSIGNMENT ( #73, #38, ( #184 ) ) ;
#26 = CIRCLE ( 'NONE', #109, 1500.000000000000000 ) ;
#27 = CARTESIAN_POINT ( 'NONE',  ( -6.349999999999999645, 0.000000000000000000, 0.000000000000000000 ) ) ;
#28 = CC_DESIGN_PERSON_AND_ORGANIZATION_ASSIGNMENT ( #24, #180, ( #35 ) ) ;
#29 = LOCAL_TIME ( 11, 29, 20.00000000000000000, #108 ) ;
#30 = DIRECTION ( 'NONE',  ( -0.000000000000000000, -0.000000000000000000, -1.000000000000000000 ) ) ;
#31 = ORIENTED_EDGE ( 'NONE', *, *, #168, .T. ) ;
#32 = DIRECTION ( 'NONE',  ( 1.000000000000000000, 0.000000000000000000, 0.000000000000000000 ) ) ;
#33 = CC_DESIGN_DATE_AND_TIME_ASSIGNMENT ( #105, #20, ( #184 ) ) ;
#34 = CIRCLE ( 'NONE', #82, 6.350000000023658941 ) ;
#35 = PRODUCT ( '010-0123T6_N-BK7_PCV_window', '010-0123T6_N-BK7_PCV_window', '', ( #54 ) ) ;
#36 = UNCERTAINTY_MEASURE_WITH_UNIT (LENGTH_MEASURE( 1.000000000000000082E-05 ), #166, 'distance_accuracy_value', 'NONE');
#37 = APPLICATION_PROTOCOL_DEFINITION ( 'international standard', 'config_control_design', 1994, #172 ) ;
#38 = PERSON_AND_ORGANIZATION_ROLE ( 'creator' ) ;
#39 = VERTEX_POINT ( 'NONE', #78 ) ;
#40 = CC_DESIGN_PERSON_AND_ORGANIZATION_ASSIGNMENT ( #89, #70, ( #19 ) ) ;
#41 = DIRECTION ( 'NONE',  ( 0.000000000000000000, -1.000000000000000000, -0.000000000000000000 ) ) ;
#42 = DIRECTION ( 'NONE',  ( 0.000000000000000000, 0.000000000000000000, 1.000000000000000000 ) ) ;
#43 = ORIENTED_EDGE ( 'NONE', *, *, #131, .T. ) ;
#44 = LOCAL_TIME ( 11, 29, 20.00000000000000000, #84 ) ;
#45 = AXIS2_PLACEMENT_3D ( 'NONE', #113, #30, #159 ) ;
#46 = DIRECTION ( 'NONE',  ( -0.000000000000000000, -0.000000000000000000, -1.000000000000000000 ) ) ;
#47 = PERSON_AND_ORGANIZATION_ROLE ( 'design_supplier' ) ;
#48 = PRODUCT_RELATED_PRODUCT_CATEGORY ( 'detail', '', ( #35 ) ) ;
#49 = DIRECTION ( 'NONE',  ( 0.000000000000000000, 0.000000000000000000, 1.000000000000000000 ) ) ;
#50 = CARTESIAN_POINT ( 'NONE',  ( -6.349999999999999645, 0.000000000000000000, 6.000000000000000000 ) ) ;
#51 = CARTESIAN_POINT ( 'NONE',  ( 0.000000000000000000, 0.000000000000000000, 0.000000000000000000 ) ) ;
#52 = VECTOR ( 'NONE', #147, 1000.000000000000000 ) ;
#53 = ADVANCED_FACE ( 'NONE', ( #61 ), #197, .F. ) ;
#54 = MECHANICAL_CONTEXT ( 'NONE', #111, 'mechanical' ) ;
#55 = ORIENTED_EDGE ( 'NONE', *, *, #74, .T. ) ;
#56 = APPROVAL_STATUS ( 'not_yet_approved' ) ;
#57 = APPROVAL_PERSON_ORGANIZATION ( #170, #138, #2 ) ;
#58 = EDGE_LOOP ( 'NONE', ( #128, #115, #12 ) ) ;
#59 = ORIENTED_EDGE ( 'NONE', *, *, #116, .F. ) ;
#60 = DIRECTION ( 'NONE',  ( 1.000000000000000000, 0.000000000000000000, -0.000000000000000000 ) ) ;
#61 = FACE_OUTER_BOUND ( 'NONE', #196, .T. ) ;
#62 = CC_DESIGN_PERSON_AND_ORGANIZATION_ASSIGNMENT ( #90, #16, ( #149 ) ) ;
#63 = CC_DESIGN_APPROVAL ( #91, ( #19 ) ) ;
#64 = DIRECTION ( 'NONE',  ( -1.000000000000000000, 0.000000000000000000, 0.000000000000000000 ) ) ;
#65 = DATE_AND_TIME ( #122, #44 ) ;
#66 = FACE_OUTER_BOUND ( 'NONE', #58, .T. ) ;
#67 =( GEOMETRIC_REPRESENTATION_CONTEXT ( 3 ) GLOBAL_UNCERTAINTY_ASSIGNED_CONTEXT ( ( #36 ) ) GLOBAL_UNIT_ASSIGNED_CONTEXT ( ( #166, #151, #152 ) ) REPRESENTATION_CONTEXT ( 'NONE', 'WORKASPACE' ) );
#68 = CARTESIAN_POINT ( 'NONE',  ( 0.000000000000000000, 0.000000000000000000, 6.000000000000000000 ) ) ;
#69 = DATE_AND_TIME ( #6, #165 ) ;
#70 = PERSON_AND_ORGANIZATION_ROLE ( 'classification_officer' ) ;
#71 = PERSON ( 'UNSPECIFIED', 'UNSPECIFIED', 'UNSPECIFIED', ('UNSPECIFIED'), ('UNSPECIFIED'), ('UNSPECIFIED') ) ;
#72 = CIRCLE ( 'NONE', #93, 6.349999999999999645 ) ;
#73 = PERSON_AND_ORGANIZATION ( #71, #79 ) ;
#74 = EDGE_CURVE ( 'NONE', #13, #39, #72, .T. ) ;
#75 = ORIENTED_EDGE ( 'NONE', *, *, #127, .T. ) ;
#76 = CARTESIAN_POINT ( 'NONE',  ( 1.856154119295183591E-13, 0.000000000000000000, 6.000000000000005329 ) ) ;
#77 = ADVANCED_FACE ( 'NONE', ( #112 ), #133, .T. ) ;
#78 = CARTESIAN_POINT ( 'NONE',  ( 6.349999999999999645, 7.776507174585692163E-16, 0.000000000000000000 ) ) ;
#79 = ORGANIZATION ( 'UNSPECIFIED', 'UNSPECIFIED', '' ) ;
#80 = ORIENTED_EDGE ( 'NONE', *, *, #188, .T. ) ;
#81 = APPROVAL ( #56, 'UNSPECIFIED' ) ;
#82 = AXIS2_PLACEMENT_3D ( 'NONE', #76, #7, #32 ) ;
#83 = DIRECTION ( 'NONE',  ( 1.000000000000000000, 0.000000000000000000, 0.000000000000000000 ) ) ;
#84 = COORDINATED_UNIVERSAL_TIME_OFFSET ( 2, 0, .AHEAD. ) ;
#85 = DIRECTION ( 'NONE',  ( -0.000000000000000000, -0.000000000000000000, -1.000000000000000000 ) ) ;
#86 = APPROVAL_ROLE ( '' ) ;
#87 = CIRCLE ( 'NONE', #99, 6.349999999999999645 ) ;
#88 = CARTESIAN_POINT ( 'NONE',  ( -6.350000000023473312, 0.000000000000000000, 6.000000000000005329 ) ) ;
#89 = PERSON_AND_ORGANIZATION ( #71, #79 ) ;
#90 = PERSON_AND_ORGANIZATION ( #71, #79 ) ;
#91 = APPROVAL ( #4, 'UNSPECIFIED' ) ;
#92 = ORIENTED_EDGE ( 'NONE', *, *, #161, .F. ) ;
#93 = AXIS2_PLACEMENT_3D ( 'NONE', #132, #42, #156 ) ;
#94 = CLOSED_SHELL ( 'NONE', ( #175, #77, #190, #53, #120 ) ) ;
#95 = ORIENTED_EDGE ( 'NONE', *, *, #168, .F. ) ;
#96 = AXIS2_PLACEMENT_3D ( 'NONE', #135, #85, #117 ) ;
#97 = FACE_OUTER_BOUND ( 'NONE', #140, .T. ) ;
#98 = MANIFOLD_SOLID_BREP ( 'Cut-Revolve1', #94 ) ;
#99 = AXIS2_PLACEMENT_3D ( 'NONE', #137, #14, #83 ) ;
#100 = CC_DESIGN_DATE_AND_TIME_ASSIGNMENT ( #65, #176, ( #19 ) ) ;
#101 = CARTESIAN_POINT ( 'NONE',  ( 6.350000000023844571, 7.776507174614893822E-16, 6.000000000000005329 ) ) ;
#102 = APPROVAL_STATUS ( 'not_yet_approved' ) ;
#103 = COORDINATED_UNIVERSAL_TIME_OFFSET ( 2, 0, .AHEAD. ) ;
#104 = AXIS2_PLACEMENT_3D ( 'NONE', #157, #173, #60 ) ;
#105 = DATE_AND_TIME ( #193, #29 ) ;
#106 = CALENDAR_DATE ( 2021, 25, 2 ) ;
#107 = APPLICATION_PROTOCOL_DEFINITION ( 'international standard', 'config_control_design', 1994, #111 ) ;
#108 = COORDINATED_UNIVERSAL_TIME_OFFSET ( 2, 0, .AHEAD. ) ;
#109 = AXIS2_PLACEMENT_3D ( 'NONE', #191, #1, #49 ) ;
#110 = DIRECTION ( 'NONE',  ( 1.000000000000000000, 0.000000000000000000, 0.000000000000000000 ) ) ;
#111 = APPLICATION_CONTEXT ( 'configuration controlled 3d designs of mechanical parts and assemblies' ) ;
#112 = FACE_OUTER_BOUND ( 'NONE', #186, .T. ) ;
#113 = CARTESIAN_POINT ( 'NONE',  ( 0.000000000000000000, 0.000000000000000000, 6.000000000000000000 ) ) ;
#114 = CC_DESIGN_APPROVAL ( #138, ( #149 ) ) ;
#115 = ORIENTED_EDGE ( 'NONE', *, *, #161, .T. ) ;
#116 = EDGE_CURVE ( 'NONE', #189, #39, #130, .T. ) ;
#117 = DIRECTION ( 'NONE',  ( 1.000000000000000000, 0.000000000000000000, 0.000000000000000000 ) ) ;
#118 = SECURITY_CLASSIFICATION_LEVEL ( 'unclassified' ) ;
#119 = DIRECTION ( 'NONE',  ( 1.000000000000000000, 1.224646799147353207E-16, 0.000000000000000000 ) ) ;
#120 = ADVANCED_FACE ( 'NONE', ( #97 ), #141, .F. ) ;
#121 = DIRECTION ( 'NONE',  ( 1.000000000000000000, 0.000000000000000000, 0.000000000000000000 ) ) ;
#122 = CALENDAR_DATE ( 2021, 25, 2 ) ;
#123 = AXIS2_PLACEMENT_3D ( 'NONE', #187, #41, #110 ) ;
#124 = CALENDAR_DATE ( 2021, 25, 2 ) ;
#125 = ORIENTED_EDGE ( 'NONE', *, *, #153, .T. ) ;
#126 = ORIENTED_EDGE ( 'NONE', *, *, #153, .F. ) ;
#127 = EDGE_CURVE ( 'NONE', #189, #198, #34, .T. ) ;
#128 = ORIENTED_EDGE ( 'NONE', *, *, #188, .F. ) ;
#129 = DESIGN_CONTEXT ( 'detailed design', #172, 'design' ) ;
#130 = LINE ( 'NONE', #199, #144 ) ;
#131 = EDGE_CURVE ( 'NONE', #189, #9, #26, .T. ) ;
#132 = CARTESIAN_POINT ( 'NONE',  ( 0.000000000000000000, 0.000000000000000000, 0.000000000000000000 ) ) ;
#133 = CYLINDRICAL_SURFACE ( 'NONE', #45, 6.349999999999999645 ) ;
#134 = CIRCLE ( 'NONE', #139, 1500.000000000000000 ) ;
#135 = CARTESIAN_POINT ( 'NONE',  ( 1.856154119295183591E-13, 0.000000000000000000, 6.000000000000005329 ) ) ;
#136 = APPROVAL_DATE_TIME ( #69, #91 ) ;
#137 = CARTESIAN_POINT ( 'NONE',  ( 0.000000000000000000, 0.000000000000000000, 0.000000000000000000 ) ) ;
#138 = APPROVAL ( #102, 'UNSPECIFIED' ) ;
#139 = AXIS2_PLACEMENT_3D ( 'NONE', #146, #160, #119 ) ;
#140 = EDGE_LOOP ( 'NONE', ( #92, #21, #43 ) ) ;
#141 = SPHERICAL_SURFACE ( 'NONE', #123, 1500.000000000000000 ) ;
#142 = CARTESIAN_POINT ( 'NONE',  ( 2.774639218655698212E-13, 0.000000000000000000, 5.986559106447408851 ) ) ;
#143 = PRODUCT_DEFINITION_SHAPE ( 'NONE', 'NONE',  #184 ) ;
#144 = VECTOR ( 'NONE', #46, 1000.000000000000000 ) ;
#145 = CARTESIAN_POINT ( 'NONE',  ( 1.856154119295183591E-13, 0.000000000000000000, 1505.986559106447430 ) ) ;
#146 = CARTESIAN_POINT ( 'NONE',  ( 1.856154119295183591E-13, 0.000000000000000000, 1505.986559106447430 ) ) ;
#147 = DIRECTION ( 'NONE',  ( -0.000000000000000000, -0.000000000000000000, -1.000000000000000000 ) ) ;
#148 = COORDINATED_UNIVERSAL_TIME_OFFSET ( 2, 0, .AHEAD. ) ;
#149 = PRODUCT_DEFINITION_FORMATION_WITH_SPECIFIED_SOURCE ( 'ANY', '', #35, .NOT_KNOWN. ) ;
#150 = DIRECTION ( 'NONE',  ( -0.000000000000000000, -0.000000000000000000, -1.000000000000000000 ) ) ;
#151 =( NAMED_UNIT ( * ) PLANE_ANGLE_UNIT ( ) SI_UNIT ( $, .RADIAN. ) );
#152 =( NAMED_UNIT ( * ) SI_UNIT ( $, .STERADIAN. ) SOLID_ANGLE_UNIT ( ) );
#153 = EDGE_CURVE ( 'NONE', #39, #13, #87, .T. ) ;
#154 = AXIS2_PLACEMENT_3D ( 'NONE', #68, #150, #64 ) ;
#155 = APPROVAL_ROLE ( '' ) ;
#156 = DIRECTION ( 'NONE',  ( 1.000000000000000000, 0.000000000000000000, 0.000000000000000000 ) ) ;
#157 = CARTESIAN_POINT ( 'NONE',  ( 0.000000000000000000, 0.000000000000000000, 0.000000000000000000 ) ) ;
#158 = LOCAL_TIME ( 11, 29, 20.00000000000000000, #22 ) ;
#159 = DIRECTION ( 'NONE',  ( -1.000000000000000000, 0.000000000000000000, 0.000000000000000000 ) ) ;
#160 = DIRECTION ( 'NONE',  ( 1.224646799147353207E-16, -1.000000000000000000, 0.000000000000000000 ) ) ;
#161 = EDGE_CURVE ( 'NONE', #198, #9, #134, .T. ) ;
#162 = DIRECTION ( 'NONE',  ( 0.000000000000000000, -1.000000000000000000, -0.000000000000000000 ) ) ;
#163 = PERSON_AND_ORGANIZATION ( #71, #79 ) ;
#164 = APPROVAL_DATE_TIME ( #15, #138 ) ;
#165 = LOCAL_TIME ( 11, 29, 20.00000000000000000, #148 ) ;
#166 =( LENGTH_UNIT ( ) NAMED_UNIT ( * ) SI_UNIT ( .MILLI., .METRE. ) );
#167 = APPROVAL_DATE_TIME ( #8, #81 ) ;
#168 = EDGE_CURVE ( 'NONE', #198, #13, #3, .T. ) ;
#169 = PERSON_AND_ORGANIZATION ( #71, #79 ) ;
#170 = PERSON_AND_ORGANIZATION ( #71, #79 ) ;
#171 = AXIS2_PLACEMENT_3D ( 'NONE', #145, #162, #121 ) ;
#172 = APPLICATION_CONTEXT ( 'configuration controlled 3d designs of mechanical parts and assemblies' ) ;
#173 = DIRECTION ( 'NONE',  ( 0.000000000000000000, 0.000000000000000000, 1.000000000000000000 ) ) ;
#174 = APPROVAL_PERSON_ORGANIZATION ( #169, #81, #155 ) ;
#175 = ADVANCED_FACE ( 'NONE', ( #66 ), #177, .F. ) ;
#176 = DATE_TIME_ROLE ( 'classification_date' ) ;
#177 = SPHERICAL_SURFACE ( 'NONE', #171, 1500.000000000000000 ) ;
#178 = SHAPE_DEFINITION_REPRESENTATION ( #143, #183 ) ;
#179 = CC_DESIGN_SECURITY_CLASSIFICATION ( #19, ( #149 ) ) ;
#180 = PERSON_AND_ORGANIZATION_ROLE ( 'design_owner' ) ;
#181 = DIRECTION ( 'NONE',  ( 0.000000000000000000, 0.000000000000000000, 1.000000000000000000 ) ) ;
#182 = EDGE_LOOP ( 'NONE', ( #59, #75, #31, #55 ) ) ;
#183 = ADVANCED_BREP_SHAPE_REPRESENTATION ( '010-0123T6_N-BK7_PCV_window', ( #98, #23 ), #67 ) ;
#184 = PRODUCT_DEFINITION ( 'UNKNOWN', '', #149, #129 ) ;
#185 = CIRCLE ( 'NONE', #96, 6.350000000023658941 ) ;
#186 = EDGE_LOOP ( 'NONE', ( #80, #10, #125, #95 ) ) ;
#187 = CARTESIAN_POINT ( 'NONE',  ( 1.856154119295183591E-13, 0.000000000000000000, 1505.986559106447430 ) ) ;
#188 = EDGE_CURVE ( 'NONE', #198, #189, #185, .T. ) ;
#189 = VERTEX_POINT ( 'NONE', #101 ) ;
#190 = ADVANCED_FACE ( 'NONE', ( #17 ), #5, .T. ) ;
#191 = CARTESIAN_POINT ( 'NONE',  ( 1.856154119295183591E-13, 0.000000000000000000, 1505.986559106447430 ) ) ;
#192 = DIRECTION ( 'NONE',  ( 1.000000000000000000, 0.000000000000000000, 0.000000000000000000 ) ) ;
#193 = CALENDAR_DATE ( 2021, 25, 2 ) ;
#194 = CC_DESIGN_PERSON_AND_ORGANIZATION_ASSIGNMENT ( #163, #47, ( #149 ) ) ;
#195 = LOCAL_TIME ( 11, 29, 20.00000000000000000, #103 ) ;
#196 = EDGE_LOOP ( 'NONE', ( #200, #126 ) ) ;
#197 = PLANE ( 'NONE',  #104 ) ;
#198 = VERTEX_POINT ( 'NONE', #88 ) ;
#199 = CARTESIAN_POINT ( 'NONE',  ( 6.349999999999999645, 7.776507174585692163E-16, 6.000000000000000000 ) ) ;
#200 = ORIENTED_EDGE ( 'NONE', *, *, #74, .F. ) ;
#201 = APPROVAL_PERSON_ORGANIZATION ( #18, #91, #86 ) ;
ENDSEC;
END-ISO-10303-21;
