ISO-10303-21;
HEADER;
FILE_DESCRIPTION (( 'STEP AP203' ),
    '1' );
FILE_NAME ('010-0123E_N-BK7_PCV_window.STEP',
    '2021-02-25T08:23:59',
    ( '' ),
    ( '' ),
    'SwSTEP 2.0',
    'SolidWorks 2019',
    '' );
FILE_SCHEMA (( 'CONFIG_CONTROL_DESIGN' ));
ENDSEC;

DATA;
#1 = VERTEX_POINT ( 'NONE', #81 ) ;
#2 = CARTESIAN_POINT ( 'NONE',  ( 6.349999999999999645, 7.776507174585692163E-16, 0.000000000000000000 ) ) ;
#3 = APPROVAL_PERSON_ORGANIZATION ( #191, #182, #113 ) ;
#4 = MECHANICAL_CONTEXT ( 'NONE', #20, 'mechanical' ) ;
#5 = CC_DESIGN_PERSON_AND_ORGANIZATION_ASSIGNMENT ( #55, #100, ( #19 ) ) ;
#6 = COORDINATED_UNIVERSAL_TIME_OFFSET ( 2, 0, .AHEAD. ) ;
#7 = PERSON_AND_ORGANIZATION_ROLE ( 'classification_officer' ) ;
#8 = CC_DESIGN_PERSON_AND_ORGANIZATION_ASSIGNMENT ( #134, #133, ( #69 ) ) ;
#9 = APPROVAL_PERSON_ORGANIZATION ( #190, #135, #24 ) ;
#10 = VERTEX_POINT ( 'NONE', #129 ) ;
#11 = ORIENTED_EDGE ( 'NONE', *, *, #151, .T. ) ;
#12 = ORIENTED_EDGE ( 'NONE', *, *, #170, .T. ) ;
#13 = ADVANCED_FACE ( 'NONE', ( #48 ), #184, .F. ) ;
#14 = CARTESIAN_POINT ( 'NONE',  ( 1.856154119295183591E-13, 0.000000000000000000, 1502.986559106447203 ) ) ;
#15 = CARTESIAN_POINT ( 'NONE',  ( 0.000000000000000000, 0.000000000000000000, 0.000000000000000000 ) ) ;
#16 = PERSON ( 'UNSPECIFIED', 'UNSPECIFIED', 'UNSPECIFIED', ('UNSPECIFIED'), ('UNSPECIFIED'), ('UNSPECIFIED') ) ;
#17 = DIRECTION ( 'NONE',  ( 1.000000000000000000, 0.000000000000000000, 0.000000000000000000 ) ) ;
#18 = CARTESIAN_POINT ( 'NONE',  ( 0.000000000000000000, 0.000000000000000000, 3.000000000000000000 ) ) ;
#19 = PRODUCT_DEFINITION_FORMATION_WITH_SPECIFIED_SOURCE ( 'ANY', '', #69, .NOT_KNOWN. ) ;
#20 = APPLICATION_CONTEXT ( 'configuration controlled 3d designs of mechanical parts and assemblies' ) ;
#21 =( NAMED_UNIT ( * ) PLANE_ANGLE_UNIT ( ) SI_UNIT ( $, .RADIAN. ) );
#22 = PERSON_AND_ORGANIZATION ( #16, #47 ) ;
#23 = CALENDAR_DATE ( 2021, 25, 2 ) ;
#24 = APPROVAL_ROLE ( '' ) ;
#25 = VECTOR ( 'NONE', #79, 1000.000000000000000 ) ;
#26 = ORIENTED_EDGE ( 'NONE', *, *, #151, .F. ) ;
#27 = ORIENTED_EDGE ( 'NONE', *, *, #114, .T. ) ;
#28 = EDGE_CURVE ( 'NONE', #1, #44, #29, .T. ) ;
#29 = CIRCLE ( 'NONE', #46, 6.350000000023658941 ) ;
#30 = LOCAL_TIME ( 10, 23, 59.00000000000000000, #41 ) ;
#31 = ORIENTED_EDGE ( 'NONE', *, *, #114, .F. ) ;
#32 = CARTESIAN_POINT ( 'NONE',  ( 1.856154119295183591E-13, 0.000000000000000000, 1502.986559106447203 ) ) ;
#33 = APPLICATION_CONTEXT ( 'configuration controlled 3d designs of mechanical parts and assemblies' ) ;
#34 = DIRECTION ( 'NONE',  ( 0.000000000000000000, -1.000000000000000000, -0.000000000000000000 ) ) ;
#35 = DIRECTION ( 'NONE',  ( 0.000000000000000000, 1.000000000000000000, -0.000000000000000000 ) ) ;
#36 = CARTESIAN_POINT ( 'NONE',  ( 2.774639218655698212E-13, 0.000000000000000000, 2.986559106447295164 ) ) ;
#37 = PRODUCT_DEFINITION ( 'UNKNOWN', '', #19, #120 ) ;
#38 = COORDINATED_UNIVERSAL_TIME_OFFSET ( 2, 0, .AHEAD. ) ;
#39 = DATE_AND_TIME ( #180, #126 ) ;
#40 = COORDINATED_UNIVERSAL_TIME_OFFSET ( 2, 0, .AHEAD. ) ;
#41 = COORDINATED_UNIVERSAL_TIME_OFFSET ( 2, 0, .AHEAD. ) ;
#42 = APPROVAL_STATUS ( 'not_yet_approved' ) ;
#43 = ADVANCED_FACE ( 'NONE', ( #59 ), #107, .F. ) ;
#44 = VERTEX_POINT ( 'NONE', #157 ) ;
#45 = ORIENTED_EDGE ( 'NONE', *, *, #28, .T. ) ;
#46 = AXIS2_PLACEMENT_3D ( 'NONE', #131, #78, #128 ) ;
#47 = ORGANIZATION ( 'UNSPECIFIED', 'UNSPECIFIED', '' ) ;
#48 = FACE_OUTER_BOUND ( 'NONE', #139, .T. ) ;
#49 = EDGE_LOOP ( 'NONE', ( #63, #108, #11 ) ) ;
#50 = DIRECTION ( 'NONE',  ( 1.000000000000000000, 0.000000000000000000, 0.000000000000000000 ) ) ;
#51 = DIRECTION ( 'NONE',  ( 1.000000000000000000, 0.000000000000000000, 0.000000000000000000 ) ) ;
#52 = CALENDAR_DATE ( 2021, 25, 2 ) ;
#53 = DATE_TIME_ROLE ( 'creation_date' ) ;
#54 = APPROVAL_ROLE ( '' ) ;
#55 = PERSON_AND_ORGANIZATION ( #16, #47 ) ;
#56 = VERTEX_POINT ( 'NONE', #2 ) ;
#57 = PRODUCT_RELATED_PRODUCT_CATEGORY ( 'detail', '', ( #69 ) ) ;
#58 = EDGE_LOOP ( 'NONE', ( #152, #45, #72, #171 ) ) ;
#59 = FACE_OUTER_BOUND ( 'NONE', #49, .T. ) ;
#60 = DIRECTION ( 'NONE',  ( -1.000000000000000000, 0.000000000000000000, 0.000000000000000000 ) ) ;
#61 = ADVANCED_FACE ( 'NONE', ( #95 ), #187, .T. ) ;
#62 = FACE_OUTER_BOUND ( 'NONE', #156, .T. ) ;
#63 = ORIENTED_EDGE ( 'NONE', *, *, #170, .F. ) ;
#64 = AXIS2_PLACEMENT_3D ( 'NONE', #200, #67, #60 ) ;
#65 = EDGE_CURVE ( 'NONE', #44, #10, #144, .T. ) ;
#66 = AXIS2_PLACEMENT_3D ( 'NONE', #98, #116, #132 ) ;
#67 = DIRECTION ( 'NONE',  ( -0.000000000000000000, -0.000000000000000000, -1.000000000000000000 ) ) ;
#68 = APPROVAL_DATE_TIME ( #39, #182 ) ;
#69 = PRODUCT ( '010-0123E_N-BK7_PCV_window', '010-0123E_N-BK7_PCV_window', '', ( #4 ) ) ;
#70 = CALENDAR_DATE ( 2021, 25, 2 ) ;
#71 = APPROVAL_DATE_TIME ( #104, #123 ) ;
#72 = ORIENTED_EDGE ( 'NONE', *, *, #65, .T. ) ;
#73 = EDGE_LOOP ( 'NONE', ( #27, #85, #122, #127 ) ) ;
#74 = CC_DESIGN_PERSON_AND_ORGANIZATION_ASSIGNMENT ( #22, #83, ( #37 ) ) ;
#75 = FACE_OUTER_BOUND ( 'NONE', #73, .T. ) ;
#76 = AXIS2_PLACEMENT_3D ( 'NONE', #15, #141, #50 ) ;
#77 = DIRECTION ( 'NONE',  ( 0.000000000000000000, -1.000000000000000000, -0.000000000000000000 ) ) ;
#78 = DIRECTION ( 'NONE',  ( -0.000000000000000000, -0.000000000000000000, -1.000000000000000000 ) ) ;
#79 = DIRECTION ( 'NONE',  ( -0.000000000000000000, -0.000000000000000000, -1.000000000000000000 ) ) ;
#80 = CC_DESIGN_APPROVAL ( #182, ( #19 ) ) ;
#81 = CARTESIAN_POINT ( 'NONE',  ( 6.350000000023844571, 7.776507174614893822E-16, 2.999999999999891642 ) ) ;
#82 = AXIS2_PLACEMENT_3D ( 'NONE', #172, #188, #175 ) ;
#83 = PERSON_AND_ORGANIZATION_ROLE ( 'creator' ) ;
#84 = AXIS2_PLACEMENT_3D ( 'NONE', #18, #173, #111 ) ;
#85 = ORIENTED_EDGE ( 'NONE', *, *, #93, .T. ) ;
#86 = SECURITY_CLASSIFICATION ( '', '', #176 ) ;
#87 = VERTEX_POINT ( 'NONE', #36 ) ;
#88 = LOCAL_TIME ( 10, 23, 59.00000000000000000, #6 ) ;
#89 = ORIENTED_EDGE ( 'NONE', *, *, #153, .F. ) ;
#90 = CARTESIAN_POINT ( 'NONE',  ( 1.856154119295183591E-13, 0.000000000000000000, 2.999999999999891642 ) ) ;
#91 = CARTESIAN_POINT ( 'NONE',  ( -6.349999999999999645, 0.000000000000000000, 3.000000000000000000 ) ) ;
#92 = AXIS2_PLACEMENT_3D ( 'NONE', #124, #145, #110 ) ;
#93 = EDGE_CURVE ( 'NONE', #1, #56, #183, .T. ) ;
#94 = DIRECTION ( 'NONE',  ( 0.000000000000000000, 0.000000000000000000, 1.000000000000000000 ) ) ;
#95 = FACE_OUTER_BOUND ( 'NONE', #58, .T. ) ;
#96 = DIRECTION ( 'NONE',  ( 1.000000000000000000, 0.000000000000000000, 0.000000000000000000 ) ) ;
#97 = VECTOR ( 'NONE', #160, 1000.000000000000000 ) ;
#98 = CARTESIAN_POINT ( 'NONE',  ( 0.000000000000000000, 0.000000000000000000, 0.000000000000000000 ) ) ;
#99 = EDGE_CURVE ( 'NONE', #10, #56, #169, .T. ) ;
#100 = PERSON_AND_ORGANIZATION_ROLE ( 'creator' ) ;
#101 = ADVANCED_BREP_SHAPE_REPRESENTATION ( '010-0123E_N-BK7_PCV_window', ( #112, #66 ), #199 ) ;
#102 = DATE_AND_TIME ( #70, #142 ) ;
#103 = ADVANCED_FACE ( 'NONE', ( #75 ), #143, .T. ) ;
#104 = DATE_AND_TIME ( #23, #30 ) ;
#105 = CC_DESIGN_SECURITY_CLASSIFICATION ( #86, ( #19 ) ) ;
#106 = ORIENTED_EDGE ( 'NONE', *, *, #99, .F. ) ;
#107 = SPHERICAL_SURFACE ( 'NONE', #161, 1500.000000000000000 ) ;
#108 = ORIENTED_EDGE ( 'NONE', *, *, #28, .F. ) ;
#109 = DIRECTION ( 'NONE',  ( 1.000000000000000000, 0.000000000000000000, -0.000000000000000000 ) ) ;
#110 = DIRECTION ( 'NONE',  ( 1.000000000000000000, 0.000000000000000000, 0.000000000000000000 ) ) ;
#111 = DIRECTION ( 'NONE',  ( -1.000000000000000000, 0.000000000000000000, 0.000000000000000000 ) ) ;
#112 = MANIFOLD_SOLID_BREP ( 'Cut-Revolve1', #198 ) ;
#113 = APPROVAL_ROLE ( '' ) ;
#114 = EDGE_CURVE ( 'NONE', #44, #1, #154, .T. ) ;
#115 = APPROVAL_STATUS ( 'not_yet_approved' ) ;
#116 = DIRECTION ( 'NONE',  ( 0.000000000000000000, 0.000000000000000000, 1.000000000000000000 ) ) ;
#117 = PERSON_AND_ORGANIZATION ( #16, #47 ) ;
#118 = AXIS2_PLACEMENT_3D ( 'NONE', #90, #201, #96 ) ;
#119 = APPROVAL_STATUS ( 'not_yet_approved' ) ;
#120 = DESIGN_CONTEXT ( 'detailed design', #33, 'design' ) ;
#121 = CIRCLE ( 'NONE', #82, 1500.000000000000000 ) ;
#122 = ORIENTED_EDGE ( 'NONE', *, *, #153, .T. ) ;
#123 = APPROVAL ( #119, 'UNSPECIFIED' ) ;
#124 = CARTESIAN_POINT ( 'NONE',  ( 0.000000000000000000, 0.000000000000000000, 0.000000000000000000 ) ) ;
#125 = UNCERTAINTY_MEASURE_WITH_UNIT (LENGTH_MEASURE( 1.000000000000000082E-05 ), #136, 'distance_accuracy_value', 'NONE');
#126 = LOCAL_TIME ( 10, 23, 59.00000000000000000, #40 ) ;
#127 = ORIENTED_EDGE ( 'NONE', *, *, #65, .F. ) ;
#128 = DIRECTION ( 'NONE',  ( 1.000000000000000000, 0.000000000000000000, 0.000000000000000000 ) ) ;
#129 = CARTESIAN_POINT ( 'NONE',  ( -6.349999999999999645, 0.000000000000000000, 0.000000000000000000 ) ) ;
#130 = LOCAL_TIME ( 10, 23, 59.00000000000000000, #179 ) ;
#131 = CARTESIAN_POINT ( 'NONE',  ( 1.856154119295183591E-13, 0.000000000000000000, 2.999999999999891642 ) ) ;
#132 = DIRECTION ( 'NONE',  ( 1.000000000000000000, 0.000000000000000000, 0.000000000000000000 ) ) ;
#133 = PERSON_AND_ORGANIZATION_ROLE ( 'design_owner' ) ;
#134 = PERSON_AND_ORGANIZATION ( #16, #47 ) ;
#135 = APPROVAL ( #42, 'UNSPECIFIED' ) ;
#136 =( LENGTH_UNIT ( ) NAMED_UNIT ( * ) SI_UNIT ( .MILLI., .METRE. ) );
#137 = AXIS2_PLACEMENT_3D ( 'NONE', #14, #34, #17 ) ;
#138 = CC_DESIGN_DATE_AND_TIME_ASSIGNMENT ( #147, #53, ( #37 ) ) ;
#139 = EDGE_LOOP ( 'NONE', ( #31, #12, #26 ) ) ;
#140 = ADVANCED_FACE ( 'NONE', ( #62 ), #174, .F. ) ;
#141 = DIRECTION ( 'NONE',  ( 0.000000000000000000, 0.000000000000000000, 1.000000000000000000 ) ) ;
#142 = LOCAL_TIME ( 10, 23, 59.00000000000000000, #38 ) ;
#143 = CYLINDRICAL_SURFACE ( 'NONE', #64, 6.349999999999999645 ) ;
#144 = LINE ( 'NONE', #91, #97 ) ;
#145 = DIRECTION ( 'NONE',  ( 0.000000000000000000, 0.000000000000000000, 1.000000000000000000 ) ) ;
#146 = CC_DESIGN_APPROVAL ( #123, ( #86 ) ) ;
#147 = DATE_AND_TIME ( #52, #88 ) ;
#148 = APPLICATION_PROTOCOL_DEFINITION ( 'international standard', 'config_control_design', 1994, #33 ) ;
#149 = PERSON_AND_ORGANIZATION_ROLE ( 'design_supplier' ) ;
#150 =( NAMED_UNIT ( * ) SI_UNIT ( $, .STERADIAN. ) SOLID_ANGLE_UNIT ( ) );
#151 = EDGE_CURVE ( 'NONE', #1, #87, #163, .T. ) ;
#152 = ORIENTED_EDGE ( 'NONE', *, *, #93, .F. ) ;
#153 = EDGE_CURVE ( 'NONE', #56, #10, #159, .T. ) ;
#154 = CIRCLE ( 'NONE', #118, 6.350000000023658941 ) ;
#155 = CC_DESIGN_APPROVAL ( #135, ( #37 ) ) ;
#156 = EDGE_LOOP ( 'NONE', ( #106, #89 ) ) ;
#157 = CARTESIAN_POINT ( 'NONE',  ( -6.350000000023473312, 0.000000000000000000, 2.999999999999891642 ) ) ;
#158 = CARTESIAN_POINT ( 'NONE',  ( 6.349999999999999645, 7.776507174585692163E-16, 3.000000000000000000 ) ) ;
#159 = CIRCLE ( 'NONE', #92, 6.349999999999999645 ) ;
#160 = DIRECTION ( 'NONE',  ( -0.000000000000000000, -0.000000000000000000, -1.000000000000000000 ) ) ;
#161 = AXIS2_PLACEMENT_3D ( 'NONE', #32, #77, #51 ) ;
#162 = CARTESIAN_POINT ( 'NONE',  ( 0.000000000000000000, 0.000000000000000000, 0.000000000000000000 ) ) ;
#163 = CIRCLE ( 'NONE', #177, 1500.000000000000000 ) ;
#164 = APPLICATION_PROTOCOL_DEFINITION ( 'international standard', 'config_control_design', 1994, #20 ) ;
#165 = PERSON_AND_ORGANIZATION ( #16, #47 ) ;
#166 = DATE_AND_TIME ( #192, #130 ) ;
#167 = DATE_TIME_ROLE ( 'classification_date' ) ;
#168 = SHAPE_DEFINITION_REPRESENTATION ( #189, #101 ) ;
#169 = CIRCLE ( 'NONE', #76, 6.349999999999999645 ) ;
#170 = EDGE_CURVE ( 'NONE', #44, #87, #121, .T. ) ;
#171 = ORIENTED_EDGE ( 'NONE', *, *, #99, .T. ) ;
#172 = CARTESIAN_POINT ( 'NONE',  ( 1.856154119295183591E-13, 0.000000000000000000, 1502.986559106447203 ) ) ;
#173 = DIRECTION ( 'NONE',  ( -0.000000000000000000, -0.000000000000000000, -1.000000000000000000 ) ) ;
#174 = PLANE ( 'NONE',  #181 ) ;
#175 = DIRECTION ( 'NONE',  ( 1.000000000000000000, 1.224646799147353207E-16, 0.000000000000000000 ) ) ;
#176 = SECURITY_CLASSIFICATION_LEVEL ( 'unclassified' ) ;
#177 = AXIS2_PLACEMENT_3D ( 'NONE', #197, #35, #94 ) ;
#178 = APPROVAL_DATE_TIME ( #166, #135 ) ;
#179 = COORDINATED_UNIVERSAL_TIME_OFFSET ( 2, 0, .AHEAD. ) ;
#180 = CALENDAR_DATE ( 2021, 25, 2 ) ;
#181 = AXIS2_PLACEMENT_3D ( 'NONE', #162, #185, #109 ) ;
#182 = APPROVAL ( #115, 'UNSPECIFIED' ) ;
#183 = LINE ( 'NONE', #158, #25 ) ;
#184 = SPHERICAL_SURFACE ( 'NONE', #137, 1500.000000000000000 ) ;
#185 = DIRECTION ( 'NONE',  ( 0.000000000000000000, 0.000000000000000000, 1.000000000000000000 ) ) ;
#186 = CC_DESIGN_DATE_AND_TIME_ASSIGNMENT ( #102, #167, ( #86 ) ) ;
#187 = CYLINDRICAL_SURFACE ( 'NONE', #84, 6.349999999999999645 ) ;
#188 = DIRECTION ( 'NONE',  ( 1.224646799147353207E-16, -1.000000000000000000, 0.000000000000000000 ) ) ;
#189 = PRODUCT_DEFINITION_SHAPE ( 'NONE', 'NONE',  #37 ) ;
#190 = PERSON_AND_ORGANIZATION ( #16, #47 ) ;
#191 = PERSON_AND_ORGANIZATION ( #16, #47 ) ;
#192 = CALENDAR_DATE ( 2021, 25, 2 ) ;
#193 = PERSON_AND_ORGANIZATION ( #16, #47 ) ;
#194 = CC_DESIGN_PERSON_AND_ORGANIZATION_ASSIGNMENT ( #117, #7, ( #86 ) ) ;
#195 = APPROVAL_PERSON_ORGANIZATION ( #193, #123, #54 ) ;
#196 = CC_DESIGN_PERSON_AND_ORGANIZATION_ASSIGNMENT ( #165, #149, ( #19 ) ) ;
#197 = CARTESIAN_POINT ( 'NONE',  ( 1.856154119295183591E-13, 0.000000000000000000, 1502.986559106447203 ) ) ;
#198 = CLOSED_SHELL ( 'NONE', ( #13, #103, #61, #140, #43 ) ) ;
#199 =( GEOMETRIC_REPRESENTATION_CONTEXT ( 3 ) GLOBAL_UNCERTAINTY_ASSIGNED_CONTEXT ( ( #125 ) ) GLOBAL_UNIT_ASSIGNED_CONTEXT ( ( #136, #21, #150 ) ) REPRESENTATION_CONTEXT ( 'NONE', 'WORKASPACE' ) );
#200 = CARTESIAN_POINT ( 'NONE',  ( 0.000000000000000000, 0.000000000000000000, 3.000000000000000000 ) ) ;
#201 = DIRECTION ( 'NONE',  ( -0.000000000000000000, -0.000000000000000000, -1.000000000000000000 ) ) ;
ENDSEC;
END-ISO-10303-21;
