ISO-10303-21;
HEADER;
FILE_DESCRIPTION (( 'STEP AP203' ),
    '1' );
FILE_NAME ('010-0120T6_N-BK7_PCV_window.STEP',
    '2021-02-25T09:27:22',
    ( '' ),
    ( '' ),
    'SwSTEP 2.0',
    'SolidWorks 2019',
    '' );
FILE_SCHEMA (( 'CONFIG_CONTROL_DESIGN' ));
ENDSEC;

DATA;
#1 = AXIS2_PLACEMENT_3D ( 'NONE', #149, #59, #9 ) ;
#2 = DATE_AND_TIME ( #82, #76 ) ;
#3 = DIRECTION ( 'NONE',  ( 1.000000000000000000, 0.000000000000000000, 0.000000000000000000 ) ) ;
#4 = EDGE_CURVE ( 'NONE', #118, #27, #61, .T. ) ;
#5 = VECTOR ( 'NONE', #154, 1000.000000000000000 ) ;
#6 = PERSON_AND_ORGANIZATION_ROLE ( 'creator' ) ;
#7 = AXIS2_PLACEMENT_3D ( 'NONE', #49, #155, #64 ) ;
#8 = VERTEX_POINT ( 'NONE', #25 ) ;
#9 = DIRECTION ( 'NONE',  ( 0.000000000000000000, 0.000000000000000000, 1.000000000000000000 ) ) ;
#10 = CC_DESIGN_PERSON_AND_ORGANIZATION_ASSIGNMENT ( #50, #110, ( #199 ) ) ;
#11 = DIRECTION ( 'NONE',  ( -0.000000000000000000, -0.000000000000000000, -1.000000000000000000 ) ) ;
#12 = VERTEX_POINT ( 'NONE', #148 ) ;
#13 = DIRECTION ( 'NONE',  ( 1.000000000000000000, 0.000000000000000000, -0.000000000000000000 ) ) ;
#14 = CARTESIAN_POINT ( 'NONE',  ( 6.349999999999999645, 7.776507174585692163E-16, 6.000000000000000000 ) ) ;
#15 = CARTESIAN_POINT ( 'NONE',  ( 0.000000000000000000, 0.000000000000000000, 6.000000000000000000 ) ) ;
#16 = LOCAL_TIME ( 11, 27, 22.00000000000000000, #98 ) ;
#17 = SPHERICAL_SURFACE ( 'NONE', #123, 1000.000000000000000 ) ;
#18 = APPROVAL ( #172, 'UNSPECIFIED' ) ;
#19 =( NAMED_UNIT ( * ) PLANE_ANGLE_UNIT ( ) SI_UNIT ( $, .RADIAN. ) );
#20 = SECURITY_CLASSIFICATION_LEVEL ( 'unclassified' ) ;
#21 = CIRCLE ( 'NONE', #71, 1000.000000000000000 ) ;
#22 = SHAPE_DEFINITION_REPRESENTATION ( #97, #120 ) ;
#23 = APPROVAL ( #33, 'UNSPECIFIED' ) ;
#24 = COORDINATED_UNIVERSAL_TIME_OFFSET ( 2, 0, .AHEAD. ) ;
#25 = CARTESIAN_POINT ( 'NONE',  ( 6.349999999988814814, 7.776507174578843864E-16, 6.000000000000005329 ) ) ;
#26 = PRODUCT_RELATED_PRODUCT_CATEGORY ( 'detail', '', ( #199 ) ) ;
#27 = VERTEX_POINT ( 'NONE', #121 ) ;
#28 = CARTESIAN_POINT ( 'NONE',  ( -6.349999999999999645, 0.000000000000000000, 6.000000000000000000 ) ) ;
#29 = ORIENTED_EDGE ( 'NONE', *, *, #75, .F. ) ;
#30 = AXIS2_PLACEMENT_3D ( 'NONE', #197, #91, #13 ) ;
#31 = EDGE_LOOP ( 'NONE', ( #191, #178 ) ) ;
#32 = DIRECTION ( 'NONE',  ( 1.000000000000000000, 0.000000000000000000, 0.000000000000000000 ) ) ;
#33 = APPROVAL_STATUS ( 'not_yet_approved' ) ;
#34 = CARTESIAN_POINT ( 'NONE',  ( -6.349999999988567012, 0.000000000000000000, 6.000000000000005329 ) ) ;
#35 = APPROVAL_ROLE ( '' ) ;
#36 = PERSON_AND_ORGANIZATION ( #163, #114 ) ;
#37 = PERSON_AND_ORGANIZATION ( #163, #114 ) ;
#38 = PLANE ( 'NONE',  #30 ) ;
#39 = VERTEX_POINT ( 'NONE', #134 ) ;
#40 = CIRCLE ( 'NONE', #1, 1000.000000000000227 ) ;
#41 = EDGE_LOOP ( 'NONE', ( #29, #168, #62 ) ) ;
#42 = ORIENTED_EDGE ( 'NONE', *, *, #75, .T. ) ;
#43 = EDGE_CURVE ( 'NONE', #27, #39, #190, .T. ) ;
#44 = PRODUCT_DEFINITION_FORMATION_WITH_SPECIFIED_SOURCE ( 'ANY', '', #199, .NOT_KNOWN. ) ;
#45 = ADVANCED_FACE ( 'NONE', ( #165 ), #38, .F. ) ;
#46 = PERSON_AND_ORGANIZATION ( #163, #114 ) ;
#47 = AXIS2_PLACEMENT_3D ( 'NONE', #192, #58, #116 ) ;
#48 = PERSON_AND_ORGANIZATION_ROLE ( 'creator' ) ;
#49 = CARTESIAN_POINT ( 'NONE',  ( 0.000000000000000000, 0.000000000000000000, 0.000000000000000000 ) ) ;
#50 = PERSON_AND_ORGANIZATION ( #163, #114 ) ;
#51 = LOCAL_TIME ( 11, 27, 22.00000000000000000, #70 ) ;
#52 = PERSON_AND_ORGANIZATION ( #163, #114 ) ;
#53 = CALENDAR_DATE ( 2021, 25, 2 ) ;
#54 = AXIS2_PLACEMENT_3D ( 'NONE', #103, #87, #151 ) ;
#55 = COORDINATED_UNIVERSAL_TIME_OFFSET ( 2, 0, .AHEAD. ) ;
#56 = ORIENTED_EDGE ( 'NONE', *, *, #4, .T. ) ;
#57 = EDGE_CURVE ( 'NONE', #8, #12, #40, .T. ) ;
#58 = DIRECTION ( 'NONE',  ( -0.000000000000000000, -0.000000000000000000, -1.000000000000000000 ) ) ;
#59 = DIRECTION ( 'NONE',  ( 0.000000000000000000, 1.000000000000000000, -0.000000000000000000 ) ) ;
#60 =( GEOMETRIC_REPRESENTATION_CONTEXT ( 3 ) GLOBAL_UNCERTAINTY_ASSIGNED_CONTEXT ( ( #188 ) ) GLOBAL_UNIT_ASSIGNED_CONTEXT ( ( #140, #19, #109 ) ) REPRESENTATION_CONTEXT ( 'NONE', 'WORKASPACE' ) );
#61 = LINE ( 'NONE', #28, #129 ) ;
#62 = ORIENTED_EDGE ( 'NONE', *, *, #57, .T. ) ;
#63 = LOCAL_TIME ( 11, 27, 22.00000000000000000, #24 ) ;
#64 = DIRECTION ( 'NONE',  ( 1.000000000000000000, 0.000000000000000000, 0.000000000000000000 ) ) ;
#65 = APPROVAL_DATE_TIME ( #2, #23 ) ;
#66 = APPROVAL_PERSON_ORGANIZATION ( #46, #23, #35 ) ;
#67 = CARTESIAN_POINT ( 'NONE',  ( 0.000000000000000000, 0.000000000000000000, 0.000000000000000000 ) ) ;
#68 = ADVANCED_FACE ( 'NONE', ( #77 ), #180, .F. ) ;
#69 = APPROVAL_ROLE ( '' ) ;
#70 = COORDINATED_UNIVERSAL_TIME_OFFSET ( 2, 0, .AHEAD. ) ;
#71 = AXIS2_PLACEMENT_3D ( 'NONE', #94, #132, #72 ) ;
#72 = DIRECTION ( 'NONE',  ( 1.000000000000000000, 1.224646799147353207E-16, 0.000000000000000000 ) ) ;
#73 = EDGE_LOOP ( 'NONE', ( #196, #135, #106, #105 ) ) ;
#74 = ORIENTED_EDGE ( 'NONE', *, *, #43, .T. ) ;
#75 = EDGE_CURVE ( 'NONE', #118, #12, #21, .T. ) ;
#76 = LOCAL_TIME ( 11, 27, 22.00000000000000000, #127 ) ;
#77 = FACE_OUTER_BOUND ( 'NONE', #41, .T. ) ;
#78 = EDGE_CURVE ( 'NONE', #118, #8, #93, .T. ) ;
#79 = PERSON_AND_ORGANIZATION ( #163, #114 ) ;
#80 = CC_DESIGN_APPROVAL ( #107, ( #164 ) ) ;
#81 = DIRECTION ( 'NONE',  ( -0.000000000000000000, -0.000000000000000000, -1.000000000000000000 ) ) ;
#82 = CALENDAR_DATE ( 2021, 25, 2 ) ;
#83 = DIRECTION ( 'NONE',  ( -0.000000000000000000, -0.000000000000000000, -1.000000000000000000 ) ) ;
#84 = ADVANCED_FACE ( 'NONE', ( #179 ), #104, .T. ) ;
#85 = DATE_TIME_ROLE ( 'classification_date' ) ;
#86 = CALENDAR_DATE ( 2021, 25, 2 ) ;
#87 = DIRECTION ( 'NONE',  ( 0.000000000000000000, -1.000000000000000000, -0.000000000000000000 ) ) ;
#88 = DIRECTION ( 'NONE',  ( -1.000000000000000000, 0.000000000000000000, 0.000000000000000000 ) ) ;
#89 = EDGE_LOOP ( 'NONE', ( #162, #193, #56, #74 ) ) ;
#90 = CC_DESIGN_PERSON_AND_ORGANIZATION_ASSIGNMENT ( #37, #159, ( #44 ) ) ;
#91 = DIRECTION ( 'NONE',  ( 0.000000000000000000, 0.000000000000000000, 1.000000000000000000 ) ) ;
#92 = MANIFOLD_SOLID_BREP ( 'Cut-Revolve1', #195 ) ;
#93 = CIRCLE ( 'NONE', #47, 6.349999999988691357 ) ;
#94 = CARTESIAN_POINT ( 'NONE',  ( 1.240327285323417073E-13, 0.000000000000000000, 1005.979838546757946 ) ) ;
#95 = APPLICATION_PROTOCOL_DEFINITION ( 'international standard', 'config_control_design', 1994, #186 ) ;
#96 = PRODUCT_DEFINITION ( 'UNKNOWN', '', #44, #157 ) ;
#97 = PRODUCT_DEFINITION_SHAPE ( 'NONE', 'NONE',  #96 ) ;
#98 = COORDINATED_UNIVERSAL_TIME_OFFSET ( 2, 0, .AHEAD. ) ;
#99 = CARTESIAN_POINT ( 'NONE',  ( 1.240327285323417073E-13, 0.000000000000000000, 6.000000000000005329 ) ) ;
#100 = CIRCLE ( 'NONE', #7, 6.349999999999999645 ) ;
#101 = DATE_TIME_ROLE ( 'creation_date' ) ;
#102 = APPROVAL_STATUS ( 'not_yet_approved' ) ;
#103 = CARTESIAN_POINT ( 'NONE',  ( 1.240327285323417073E-13, 0.000000000000000000, 1005.979838546757946 ) ) ;
#104 = CYLINDRICAL_SURFACE ( 'NONE', #177, 6.349999999999999645 ) ;
#105 = ORIENTED_EDGE ( 'NONE', *, *, #4, .F. ) ;
#106 = ORIENTED_EDGE ( 'NONE', *, *, #174, .T. ) ;
#107 = APPROVAL ( #102, 'UNSPECIFIED' ) ;
#108 = DATE_AND_TIME ( #128, #16 ) ;
#109 =( NAMED_UNIT ( * ) SI_UNIT ( $, .STERADIAN. ) SOLID_ANGLE_UNIT ( ) );
#110 = PERSON_AND_ORGANIZATION_ROLE ( 'design_owner' ) ;
#111 = CC_DESIGN_SECURITY_CLASSIFICATION ( #164, ( #44 ) ) ;
#112 = PERSON_AND_ORGANIZATION_ROLE ( 'classification_officer' ) ;
#113 = CALENDAR_DATE ( 2021, 25, 2 ) ;
#114 = ORGANIZATION ( 'UNSPECIFIED', 'UNSPECIFIED', '' ) ;
#115 = ORIENTED_EDGE ( 'NONE', *, *, #78, .F. ) ;
#116 = DIRECTION ( 'NONE',  ( 1.000000000000000000, 0.000000000000000000, 0.000000000000000000 ) ) ;
#117 = ADVANCED_FACE ( 'NONE', ( #184 ), #17, .F. ) ;
#118 = VERTEX_POINT ( 'NONE', #34 ) ;
#119 = AXIS2_PLACEMENT_3D ( 'NONE', #99, #81, #3 ) ;
#120 = ADVANCED_BREP_SHAPE_REPRESENTATION ( '010-0120T6_N-BK7_PCV_window', ( #92, #167 ), #60 ) ;
#121 = CARTESIAN_POINT ( 'NONE',  ( -6.349999999999999645, 0.000000000000000000, 0.000000000000000000 ) ) ;
#122 = ORIENTED_EDGE ( 'NONE', *, *, #57, .F. ) ;
#123 = AXIS2_PLACEMENT_3D ( 'NONE', #169, #170, #200 ) ;
#124 = CC_DESIGN_APPROVAL ( #18, ( #44 ) ) ;
#125 = CC_DESIGN_PERSON_AND_ORGANIZATION_ASSIGNMENT ( #144, #6, ( #44 ) ) ;
#126 = AXIS2_PLACEMENT_3D ( 'NONE', #182, #133, #146 ) ;
#127 = COORDINATED_UNIVERSAL_TIME_OFFSET ( 2, 0, .AHEAD. ) ;
#128 = CALENDAR_DATE ( 2021, 25, 2 ) ;
#129 = VECTOR ( 'NONE', #11, 1000.000000000000000 ) ;
#130 = DATE_AND_TIME ( #53, #63 ) ;
#131 = DATE_AND_TIME ( #86, #171 ) ;
#132 = DIRECTION ( 'NONE',  ( 1.224646799147353207E-16, -1.000000000000000000, 0.000000000000000000 ) ) ;
#133 = DIRECTION ( 'NONE',  ( 0.000000000000000000, 0.000000000000000000, 1.000000000000000000 ) ) ;
#134 = CARTESIAN_POINT ( 'NONE',  ( 6.349999999999999645, 7.776507174585692163E-16, 0.000000000000000000 ) ) ;
#135 = ORIENTED_EDGE ( 'NONE', *, *, #141, .T. ) ;
#136 = ADVANCED_FACE ( 'NONE', ( #187 ), #137, .T. ) ;
#137 = CYLINDRICAL_SURFACE ( 'NONE', #139, 6.349999999999999645 ) ;
#138 = DIRECTION ( 'NONE',  ( 0.000000000000000000, 0.000000000000000000, 1.000000000000000000 ) ) ;
#139 = AXIS2_PLACEMENT_3D ( 'NONE', #15, #83, #152 ) ;
#140 =( LENGTH_UNIT ( ) NAMED_UNIT ( * ) SI_UNIT ( .MILLI., .METRE. ) );
#141 = EDGE_CURVE ( 'NONE', #8, #39, #142, .T. ) ;
#142 = LINE ( 'NONE', #14, #5 ) ;
#143 = APPROVAL_DATE_TIME ( #130, #18 ) ;
#144 = PERSON_AND_ORGANIZATION ( #163, #114 ) ;
#145 = CC_DESIGN_DATE_AND_TIME_ASSIGNMENT ( #176, #85, ( #164 ) ) ;
#146 = DIRECTION ( 'NONE',  ( 1.000000000000000000, 0.000000000000000000, 0.000000000000000000 ) ) ;
#147 = DIRECTION ( 'NONE',  ( -0.000000000000000000, -0.000000000000000000, -1.000000000000000000 ) ) ;
#148 = CARTESIAN_POINT ( 'NONE',  ( 1.852650684897093823E-13, 0.000000000000000000, 5.979838546757987316 ) ) ;
#149 = CARTESIAN_POINT ( 'NONE',  ( 1.240327285323417073E-13, 0.000000000000000000, 1005.979838546757946 ) ) ;
#150 = CC_DESIGN_APPROVAL ( #23, ( #96 ) ) ;
#151 = DIRECTION ( 'NONE',  ( 1.000000000000000000, 0.000000000000000000, 0.000000000000000000 ) ) ;
#152 = DIRECTION ( 'NONE',  ( -1.000000000000000000, 0.000000000000000000, 0.000000000000000000 ) ) ;
#153 = APPROVAL_PERSON_ORGANIZATION ( #79, #18, #156 ) ;
#154 = DIRECTION ( 'NONE',  ( -0.000000000000000000, -0.000000000000000000, -1.000000000000000000 ) ) ;
#155 = DIRECTION ( 'NONE',  ( 0.000000000000000000, 0.000000000000000000, 1.000000000000000000 ) ) ;
#156 = APPROVAL_ROLE ( '' ) ;
#157 = DESIGN_CONTEXT ( 'detailed design', #198, 'design' ) ;
#158 = CIRCLE ( 'NONE', #119, 6.349999999988691357 ) ;
#159 = PERSON_AND_ORGANIZATION_ROLE ( 'design_supplier' ) ;
#160 = EDGE_LOOP ( 'NONE', ( #115, #42, #122 ) ) ;
#161 = CARTESIAN_POINT ( 'NONE',  ( 0.000000000000000000, 0.000000000000000000, 6.000000000000000000 ) ) ;
#162 = ORIENTED_EDGE ( 'NONE', *, *, #141, .F. ) ;
#163 = PERSON ( 'UNSPECIFIED', 'UNSPECIFIED', 'UNSPECIFIED', ('UNSPECIFIED'), ('UNSPECIFIED'), ('UNSPECIFIED') ) ;
#164 = SECURITY_CLASSIFICATION ( '', '', #20 ) ;
#165 = FACE_OUTER_BOUND ( 'NONE', #31, .T. ) ;
#166 = CC_DESIGN_DATE_AND_TIME_ASSIGNMENT ( #108, #101, ( #96 ) ) ;
#167 = AXIS2_PLACEMENT_3D ( 'NONE', #67, #138, #32 ) ;
#168 = ORIENTED_EDGE ( 'NONE', *, *, #194, .F. ) ;
#169 = CARTESIAN_POINT ( 'NONE',  ( 1.240327285323417073E-13, 0.000000000000000000, 1005.979838546757946 ) ) ;
#170 = DIRECTION ( 'NONE',  ( 0.000000000000000000, -1.000000000000000000, -0.000000000000000000 ) ) ;
#171 = LOCAL_TIME ( 11, 27, 22.00000000000000000, #55 ) ;
#172 = APPROVAL_STATUS ( 'not_yet_approved' ) ;
#173 = APPLICATION_PROTOCOL_DEFINITION ( 'international standard', 'config_control_design', 1994, #198 ) ;
#174 = EDGE_CURVE ( 'NONE', #39, #27, #100, .T. ) ;
#175 = APPROVAL_PERSON_ORGANIZATION ( #36, #107, #69 ) ;
#176 = DATE_AND_TIME ( #113, #51 ) ;
#177 = AXIS2_PLACEMENT_3D ( 'NONE', #161, #147, #88 ) ;
#178 = ORIENTED_EDGE ( 'NONE', *, *, #174, .F. ) ;
#179 = FACE_OUTER_BOUND ( 'NONE', #89, .T. ) ;
#180 = SPHERICAL_SURFACE ( 'NONE', #54, 1000.000000000000000 ) ;
#181 = CC_DESIGN_PERSON_AND_ORGANIZATION_ASSIGNMENT ( #52, #112, ( #164 ) ) ;
#182 = CARTESIAN_POINT ( 'NONE',  ( 0.000000000000000000, 0.000000000000000000, 0.000000000000000000 ) ) ;
#183 = MECHANICAL_CONTEXT ( 'NONE', #186, 'mechanical' ) ;
#184 = FACE_OUTER_BOUND ( 'NONE', #160, .T. ) ;
#185 = PERSON_AND_ORGANIZATION ( #163, #114 ) ;
#186 = APPLICATION_CONTEXT ( 'configuration controlled 3d designs of mechanical parts and assemblies' ) ;
#187 = FACE_OUTER_BOUND ( 'NONE', #73, .T. ) ;
#188 = UNCERTAINTY_MEASURE_WITH_UNIT (LENGTH_MEASURE( 1.000000000000000082E-05 ), #140, 'distance_accuracy_value', 'NONE');
#189 = APPROVAL_DATE_TIME ( #131, #107 ) ;
#190 = CIRCLE ( 'NONE', #126, 6.349999999999999645 ) ;
#191 = ORIENTED_EDGE ( 'NONE', *, *, #43, .F. ) ;
#192 = CARTESIAN_POINT ( 'NONE',  ( 1.240327285323417073E-13, 0.000000000000000000, 6.000000000000005329 ) ) ;
#193 = ORIENTED_EDGE ( 'NONE', *, *, #194, .T. ) ;
#194 = EDGE_CURVE ( 'NONE', #8, #118, #158, .T. ) ;
#195 = CLOSED_SHELL ( 'NONE', ( #117, #136, #84, #45, #68 ) ) ;
#196 = ORIENTED_EDGE ( 'NONE', *, *, #78, .T. ) ;
#197 = CARTESIAN_POINT ( 'NONE',  ( 0.000000000000000000, 0.000000000000000000, 0.000000000000000000 ) ) ;
#198 = APPLICATION_CONTEXT ( 'configuration controlled 3d designs of mechanical parts and assemblies' ) ;
#199 = PRODUCT ( '010-0120T6_N-BK7_PCV_window', '010-0120T6_N-BK7_PCV_window', '', ( #183 ) ) ;
#200 = DIRECTION ( 'NONE',  ( 1.000000000000000000, 0.000000000000000000, 0.000000000000000000 ) ) ;
#201 = CC_DESIGN_PERSON_AND_ORGANIZATION_ASSIGNMENT ( #185, #48, ( #96 ) ) ;
ENDSEC;
END-ISO-10303-21;
