ISO-10303-21;
HEADER;
FILE_DESCRIPTION (( 'STEP AP203' ),
    '1' );
FILE_NAME ('010-0120E_N-BK7_PCV_window.STEP',
    '2021-02-25T08:23:06',
    ( '' ),
    ( '' ),
    'SwSTEP 2.0',
    'SolidWorks 2019',
    '' );
FILE_SCHEMA (( 'CONFIG_CONTROL_DESIGN' ));
ENDSEC;

DATA;
#1 = DIRECTION ( 'NONE',  ( 0.000000000000000000, -1.000000000000000000, -0.000000000000000000 ) ) ;
#2 = AXIS2_PLACEMENT_3D ( 'NONE', #13, #70, #128 ) ;
#3 = DATE_AND_TIME ( #6, #115 ) ;
#4 = EDGE_CURVE ( 'NONE', #197, #56, #93, .T. ) ;
#5 = APPLICATION_PROTOCOL_DEFINITION ( 'international standard', 'config_control_design', 1994, #155 ) ;
#6 = CALENDAR_DATE ( 2021, 25, 2 ) ;
#7 = APPROVAL_STATUS ( 'not_yet_approved' ) ;
#8 = PERSON_AND_ORGANIZATION_ROLE ( 'creator' ) ;
#9 = ADVANCED_FACE ( 'NONE', ( #10 ), #170, .F. ) ;
#10 = FACE_OUTER_BOUND ( 'NONE', #121, .T. ) ;
#11 = DIRECTION ( 'NONE',  ( -0.000000000000000000, -0.000000000000000000, -1.000000000000000000 ) ) ;
#12 = FACE_OUTER_BOUND ( 'NONE', #194, .T. ) ;
#13 = CARTESIAN_POINT ( 'NONE',  ( 0.000000000000000000, 0.000000000000000000, 0.000000000000000000 ) ) ;
#14 = VECTOR ( 'NONE', #29, 1000.000000000000000 ) ;
#15 = CC_DESIGN_PERSON_AND_ORGANIZATION_ASSIGNMENT ( #91, #135, ( #105 ) ) ;
#16 = PERSON_AND_ORGANIZATION_ROLE ( 'design_supplier' ) ;
#17 = APPROVAL_ROLE ( '' ) ;
#18 = CC_DESIGN_PERSON_AND_ORGANIZATION_ASSIGNMENT ( #163, #16, ( #105 ) ) ;
#19 = CALENDAR_DATE ( 2021, 25, 2 ) ;
#20 = PERSON_AND_ORGANIZATION_ROLE ( 'classification_officer' ) ;
#21 = ORIENTED_EDGE ( 'NONE', *, *, #149, .F. ) ;
#22 = EDGE_CURVE ( 'NONE', #56, #197, #26, .T. ) ;
#23 = DESIGN_CONTEXT ( 'detailed design', #155, 'design' ) ;
#24 = ORIENTED_EDGE ( 'NONE', *, *, #123, .T. ) ;
#25 = CC_DESIGN_PERSON_AND_ORGANIZATION_ASSIGNMENT ( #180, #113, ( #34 ) ) ;
#26 = CIRCLE ( 'NONE', #152, 6.350000000006174261 ) ;
#27 = ORIENTED_EDGE ( 'NONE', *, *, #33, .T. ) ;
#28 = DIRECTION ( 'NONE',  ( 0.000000000000000000, 0.000000000000000000, 1.000000000000000000 ) ) ;
#29 = DIRECTION ( 'NONE',  ( -0.000000000000000000, -0.000000000000000000, -1.000000000000000000 ) ) ;
#30 = CARTESIAN_POINT ( 'NONE',  ( 6.350000000006298606, 7.776507174593406237E-16, 3.000000000000002665 ) ) ;
#31 = CARTESIAN_POINT ( 'NONE',  ( 1.240327285323417073E-13, 0.000000000000000000, 3.000000000000002665 ) ) ;
#32 = DIRECTION ( 'NONE',  ( 0.000000000000000000, 1.000000000000000000, -0.000000000000000000 ) ) ;
#33 = EDGE_CURVE ( 'NONE', #169, #76, #126, .T. ) ;
#34 = PRODUCT ( '010-0120E_N-BK7_PCV_window', '010-0120E_N-BK7_PCV_window', '', ( #106 ) ) ;
#35 = CIRCLE ( 'NONE', #85, 1000.000000000000000 ) ;
#36 = ADVANCED_BREP_SHAPE_REPRESENTATION ( '010-0120E_N-BK7_PCV_window', ( #112, #69 ), #177 ) ;
#37 = DATE_AND_TIME ( #178, #38 ) ;
#38 = LOCAL_TIME ( 10, 23, 6.000000000000000000, #117 ) ;
#39 = CC_DESIGN_DATE_AND_TIME_ASSIGNMENT ( #103, #191, ( #75 ) ) ;
#40 = ORIENTED_EDGE ( 'NONE', *, *, #181, .T. ) ;
#41 = APPROVAL ( #190, 'UNSPECIFIED' ) ;
#42 = LOCAL_TIME ( 10, 23, 6.000000000000000000, #116 ) ;
#43 = AXIS2_PLACEMENT_3D ( 'NONE', #48, #174, #200 ) ;
#44 = CARTESIAN_POINT ( 'NONE',  ( -6.349999999999999645, 0.000000000000000000, 0.000000000000000000 ) ) ;
#45 = DIRECTION ( 'NONE',  ( 1.000000000000000000, 1.224646799147353207E-16, 0.000000000000000000 ) ) ;
#46 = DIRECTION ( 'NONE',  ( -0.000000000000000000, -0.000000000000000000, -1.000000000000000000 ) ) ;
#47 = AXIS2_PLACEMENT_3D ( 'NONE', #99, #46, #66 ) ;
#48 = CARTESIAN_POINT ( 'NONE',  ( 0.000000000000000000, 0.000000000000000000, 3.000000000000000000 ) ) ;
#49 = PRODUCT_RELATED_PRODUCT_CATEGORY ( 'detail', '', ( #34 ) ) ;
#50 = FACE_OUTER_BOUND ( 'NONE', #153, .T. ) ;
#51 =( NAMED_UNIT ( * ) SI_UNIT ( $, .STERADIAN. ) SOLID_ANGLE_UNIT ( ) );
#52 = DIRECTION ( 'NONE',  ( 1.000000000000000000, 0.000000000000000000, 0.000000000000000000 ) ) ;
#53 = APPROVAL_ROLE ( '' ) ;
#54 = PERSON_AND_ORGANIZATION ( #60, #98 ) ;
#55 = SHAPE_DEFINITION_REPRESENTATION ( #172, #36 ) ;
#56 = VERTEX_POINT ( 'NONE', #96 ) ;
#57 = ORIENTED_EDGE ( 'NONE', *, *, #92, .F. ) ;
#58 = APPROVAL ( #7, 'UNSPECIFIED' ) ;
#59 = VERTEX_POINT ( 'NONE', #201 ) ;
#60 = PERSON ( 'UNSPECIFIED', 'UNSPECIFIED', 'UNSPECIFIED', ('UNSPECIFIED'), ('UNSPECIFIED'), ('UNSPECIFIED') ) ;
#61 = CARTESIAN_POINT ( 'NONE',  ( 1.240327285323417073E-13, 0.000000000000000000, 1002.979838546757833 ) ) ;
#62 = AXIS2_PLACEMENT_3D ( 'NONE', #31, #157, #78 ) ;
#63 = CARTESIAN_POINT ( 'NONE',  ( 1.240327285323417073E-13, 0.000000000000000000, 1002.979838546757833 ) ) ;
#64 = ADVANCED_FACE ( 'NONE', ( #12 ), #158, .T. ) ;
#65 = FACE_OUTER_BOUND ( 'NONE', #195, .T. ) ;
#66 = DIRECTION ( 'NONE',  ( -1.000000000000000000, 0.000000000000000000, 0.000000000000000000 ) ) ;
#67 = CC_DESIGN_APPROVAL ( #41, ( #166 ) ) ;
#68 = EDGE_CURVE ( 'NONE', #197, #59, #156, .T. ) ;
#69 = AXIS2_PLACEMENT_3D ( 'NONE', #90, #132, #52 ) ;
#70 = DIRECTION ( 'NONE',  ( 0.000000000000000000, 0.000000000000000000, 1.000000000000000000 ) ) ;
#71 = DATE_AND_TIME ( #188, #120 ) ;
#72 = DATE_TIME_ROLE ( 'classification_date' ) ;
#73 = COORDINATED_UNIVERSAL_TIME_OFFSET ( 2, 0, .AHEAD. ) ;
#74 = CALENDAR_DATE ( 2021, 25, 2 ) ;
#75 = PRODUCT_DEFINITION ( 'UNKNOWN', '', #105, #23 ) ;
#76 = VERTEX_POINT ( 'NONE', #154 ) ;
#77 = ORIENTED_EDGE ( 'NONE', *, *, #22, .F. ) ;
#78 = DIRECTION ( 'NONE',  ( 1.000000000000000000, 0.000000000000000000, 0.000000000000000000 ) ) ;
#79 = APPROVAL_PERSON_ORGANIZATION ( #133, #41, #53 ) ;
#80 = ORIENTED_EDGE ( 'NONE', *, *, #22, .T. ) ;
#81 = CARTESIAN_POINT ( 'NONE',  ( 6.349999999999999645, 7.776507174585692163E-16, 3.000000000000000000 ) ) ;
#82 = ADVANCED_FACE ( 'NONE', ( #50 ), #101, .F. ) ;
#83 = DIRECTION ( 'NONE',  ( 1.224646799147353207E-16, -1.000000000000000000, 0.000000000000000000 ) ) ;
#84 = CC_DESIGN_SECURITY_CLASSIFICATION ( #166, ( #105 ) ) ;
#85 = AXIS2_PLACEMENT_3D ( 'NONE', #61, #83, #45 ) ;
#86 = DIRECTION ( 'NONE',  ( 0.000000000000000000, -1.000000000000000000, -0.000000000000000000 ) ) ;
#87 = PERSON_AND_ORGANIZATION ( #60, #98 ) ;
#88 = COORDINATED_UNIVERSAL_TIME_OFFSET ( 2, 0, .AHEAD. ) ;
#89 = CC_DESIGN_APPROVAL ( #58, ( #75 ) ) ;
#90 = CARTESIAN_POINT ( 'NONE',  ( 0.000000000000000000, 0.000000000000000000, 0.000000000000000000 ) ) ;
#91 = PERSON_AND_ORGANIZATION ( #60, #98 ) ;
#92 = EDGE_CURVE ( 'NONE', #56, #59, #35, .T. ) ;
#93 = CIRCLE ( 'NONE', #62, 6.350000000006174261 ) ;
#94 = CLOSED_SHELL ( 'NONE', ( #82, #64, #196, #9, #164 ) ) ;
#95 = CC_DESIGN_DATE_AND_TIME_ASSIGNMENT ( #3, #72, ( #166 ) ) ;
#96 = CARTESIAN_POINT ( 'NONE',  ( -6.350000000006049916, 0.000000000000000000, 3.000000000000002665 ) ) ;
#97 = FACE_OUTER_BOUND ( 'NONE', #145, .T. ) ;
#98 = ORGANIZATION ( 'UNSPECIFIED', 'UNSPECIFIED', '' ) ;
#99 = CARTESIAN_POINT ( 'NONE',  ( 0.000000000000000000, 0.000000000000000000, 3.000000000000000000 ) ) ;
#100 = DIRECTION ( 'NONE',  ( 1.000000000000000000, 0.000000000000000000, 0.000000000000000000 ) ) ;
#101 = SPHERICAL_SURFACE ( 'NONE', #140, 1000.000000000000000 ) ;
#102 = APPROVAL_DATE_TIME ( #71, #58 ) ;
#103 = DATE_AND_TIME ( #74, #42 ) ;
#104 = APPROVAL_DATE_TIME ( #37, #41 ) ;
#105 = PRODUCT_DEFINITION_FORMATION_WITH_SPECIFIED_SOURCE ( 'ANY', '', #34, .NOT_KNOWN. ) ;
#106 = MECHANICAL_CONTEXT ( 'NONE', #137, 'mechanical' ) ;
#107 = AXIS2_PLACEMENT_3D ( 'NONE', #108, #1, #184 ) ;
#108 = CARTESIAN_POINT ( 'NONE',  ( 1.240327285323417073E-13, 0.000000000000000000, 1002.979838546757833 ) ) ;
#109 = LINE ( 'NONE', #171, #14 ) ;
#110 = CARTESIAN_POINT ( 'NONE',  ( 1.240327285323417073E-13, 0.000000000000000000, 3.000000000000002665 ) ) ;
#111 = DIRECTION ( 'NONE',  ( 1.000000000000000000, 0.000000000000000000, 0.000000000000000000 ) ) ;
#112 = MANIFOLD_SOLID_BREP ( 'Cut-Revolve1', #94 ) ;
#113 = PERSON_AND_ORGANIZATION_ROLE ( 'design_owner' ) ;
#114 = APPROVAL ( #148, 'UNSPECIFIED' ) ;
#115 = LOCAL_TIME ( 10, 23, 6.000000000000000000, #88 ) ;
#116 = COORDINATED_UNIVERSAL_TIME_OFFSET ( 2, 0, .AHEAD. ) ;
#117 = COORDINATED_UNIVERSAL_TIME_OFFSET ( 2, 0, .AHEAD. ) ;
#118 = APPLICATION_PROTOCOL_DEFINITION ( 'international standard', 'config_control_design', 1994, #137 ) ;
#119 = LOCAL_TIME ( 10, 23, 6.000000000000000000, #176 ) ;
#120 = LOCAL_TIME ( 10, 23, 6.000000000000000000, #73 ) ;
#121 = EDGE_LOOP ( 'NONE', ( #136, #21 ) ) ;
#122 = ORIENTED_EDGE ( 'NONE', *, *, #68, .T. ) ;
#123 = EDGE_CURVE ( 'NONE', #197, #76, #125, .T. ) ;
#124 = ORIENTED_EDGE ( 'NONE', *, *, #4, .F. ) ;
#125 = LINE ( 'NONE', #81, #150 ) ;
#126 = CIRCLE ( 'NONE', #130, 6.349999999999999645 ) ;
#127 = ORIENTED_EDGE ( 'NONE', *, *, #4, .T. ) ;
#128 = DIRECTION ( 'NONE',  ( 1.000000000000000000, 0.000000000000000000, -0.000000000000000000 ) ) ;
#129 = DIRECTION ( 'NONE',  ( -0.000000000000000000, -0.000000000000000000, -1.000000000000000000 ) ) ;
#130 = AXIS2_PLACEMENT_3D ( 'NONE', #141, #28, #111 ) ;
#131 = CARTESIAN_POINT ( 'NONE',  ( 0.000000000000000000, 0.000000000000000000, 0.000000000000000000 ) ) ;
#132 = DIRECTION ( 'NONE',  ( 0.000000000000000000, 0.000000000000000000, 1.000000000000000000 ) ) ;
#133 = PERSON_AND_ORGANIZATION ( #60, #98 ) ;
#134 = PERSON_AND_ORGANIZATION ( #60, #98 ) ;
#135 = PERSON_AND_ORGANIZATION_ROLE ( 'creator' ) ;
#136 = ORIENTED_EDGE ( 'NONE', *, *, #33, .F. ) ;
#137 = APPLICATION_CONTEXT ( 'configuration controlled 3d designs of mechanical parts and assemblies' ) ;
#138 = ORIENTED_EDGE ( 'NONE', *, *, #68, .F. ) ;
#139 = UNCERTAINTY_MEASURE_WITH_UNIT (LENGTH_MEASURE( 1.000000000000000082E-05 ), #189, 'distance_accuracy_value', 'NONE');
#140 = AXIS2_PLACEMENT_3D ( 'NONE', #143, #86, #186 ) ;
#141 = CARTESIAN_POINT ( 'NONE',  ( 0.000000000000000000, 0.000000000000000000, 0.000000000000000000 ) ) ;
#142 = AXIS2_PLACEMENT_3D ( 'NONE', #131, #183, #173 ) ;
#143 = CARTESIAN_POINT ( 'NONE',  ( 1.240327285323417073E-13, 0.000000000000000000, 1002.979838546757833 ) ) ;
#144 = ORIENTED_EDGE ( 'NONE', *, *, #123, .F. ) ;
#145 = EDGE_LOOP ( 'NONE', ( #144, #127, #40, #27 ) ) ;
#146 = AXIS2_PLACEMENT_3D ( 'NONE', #63, #32, #175 ) ;
#147 =( NAMED_UNIT ( * ) PLANE_ANGLE_UNIT ( ) SI_UNIT ( $, .RADIAN. ) );
#148 = APPROVAL_STATUS ( 'not_yet_approved' ) ;
#149 = EDGE_CURVE ( 'NONE', #76, #169, #193, .T. ) ;
#150 = VECTOR ( 'NONE', #129, 1000.000000000000000 ) ;
#151 = CC_DESIGN_PERSON_AND_ORGANIZATION_ASSIGNMENT ( #192, #20, ( #166 ) ) ;
#152 = AXIS2_PLACEMENT_3D ( 'NONE', #110, #11, #100 ) ;
#153 = EDGE_LOOP ( 'NONE', ( #77, #168, #138 ) ) ;
#154 = CARTESIAN_POINT ( 'NONE',  ( 6.349999999999999645, 7.776507174585692163E-16, 0.000000000000000000 ) ) ;
#155 = APPLICATION_CONTEXT ( 'configuration controlled 3d designs of mechanical parts and assemblies' ) ;
#156 = CIRCLE ( 'NONE', #146, 1000.000000000000227 ) ;
#157 = DIRECTION ( 'NONE',  ( -0.000000000000000000, -0.000000000000000000, -1.000000000000000000 ) ) ;
#158 = CYLINDRICAL_SURFACE ( 'NONE', #43, 6.349999999999999645 ) ;
#159 = APPROVAL_PERSON_ORGANIZATION ( #54, #114, #160 ) ;
#160 = APPROVAL_ROLE ( '' ) ;
#161 = SECURITY_CLASSIFICATION_LEVEL ( 'unclassified' ) ;
#162 = APPROVAL_DATE_TIME ( #179, #114 ) ;
#163 = PERSON_AND_ORGANIZATION ( #60, #98 ) ;
#164 = ADVANCED_FACE ( 'NONE', ( #65 ), #187, .F. ) ;
#165 = ORIENTED_EDGE ( 'NONE', *, *, #181, .F. ) ;
#166 = SECURITY_CLASSIFICATION ( '', '', #161 ) ;
#167 = CC_DESIGN_PERSON_AND_ORGANIZATION_ASSIGNMENT ( #134, #8, ( #75 ) ) ;
#168 = ORIENTED_EDGE ( 'NONE', *, *, #92, .T. ) ;
#169 = VERTEX_POINT ( 'NONE', #44 ) ;
#170 = PLANE ( 'NONE',  #2 ) ;
#171 = CARTESIAN_POINT ( 'NONE',  ( -6.349999999999999645, 0.000000000000000000, 3.000000000000000000 ) ) ;
#172 = PRODUCT_DEFINITION_SHAPE ( 'NONE', 'NONE',  #75 ) ;
#173 = DIRECTION ( 'NONE',  ( 1.000000000000000000, 0.000000000000000000, 0.000000000000000000 ) ) ;
#174 = DIRECTION ( 'NONE',  ( -0.000000000000000000, -0.000000000000000000, -1.000000000000000000 ) ) ;
#175 = DIRECTION ( 'NONE',  ( 0.000000000000000000, 0.000000000000000000, 1.000000000000000000 ) ) ;
#176 = COORDINATED_UNIVERSAL_TIME_OFFSET ( 2, 0, .AHEAD. ) ;
#177 =( GEOMETRIC_REPRESENTATION_CONTEXT ( 3 ) GLOBAL_UNCERTAINTY_ASSIGNED_CONTEXT ( ( #139 ) ) GLOBAL_UNIT_ASSIGNED_CONTEXT ( ( #189, #147, #51 ) ) REPRESENTATION_CONTEXT ( 'NONE', 'WORKASPACE' ) );
#178 = CALENDAR_DATE ( 2021, 25, 2 ) ;
#179 = DATE_AND_TIME ( #19, #119 ) ;
#180 = PERSON_AND_ORGANIZATION ( #60, #98 ) ;
#181 = EDGE_CURVE ( 'NONE', #56, #169, #109, .T. ) ;
#182 = ORIENTED_EDGE ( 'NONE', *, *, #149, .T. ) ;
#183 = DIRECTION ( 'NONE',  ( 0.000000000000000000, 0.000000000000000000, 1.000000000000000000 ) ) ;
#184 = DIRECTION ( 'NONE',  ( 1.000000000000000000, 0.000000000000000000, 0.000000000000000000 ) ) ;
#185 = CYLINDRICAL_SURFACE ( 'NONE', #47, 6.349999999999999645 ) ;
#186 = DIRECTION ( 'NONE',  ( 1.000000000000000000, 0.000000000000000000, 0.000000000000000000 ) ) ;
#187 = SPHERICAL_SURFACE ( 'NONE', #107, 1000.000000000000000 ) ;
#188 = CALENDAR_DATE ( 2021, 25, 2 ) ;
#189 =( LENGTH_UNIT ( ) NAMED_UNIT ( * ) SI_UNIT ( .MILLI., .METRE. ) );
#190 = APPROVAL_STATUS ( 'not_yet_approved' ) ;
#191 = DATE_TIME_ROLE ( 'creation_date' ) ;
#192 = PERSON_AND_ORGANIZATION ( #60, #98 ) ;
#193 = CIRCLE ( 'NONE', #142, 6.349999999999999645 ) ;
#194 = EDGE_LOOP ( 'NONE', ( #80, #24, #182, #165 ) ) ;
#195 = EDGE_LOOP ( 'NONE', ( #57, #124, #122 ) ) ;
#196 = ADVANCED_FACE ( 'NONE', ( #97 ), #185, .T. ) ;
#197 = VERTEX_POINT ( 'NONE', #30 ) ;
#198 = CC_DESIGN_APPROVAL ( #114, ( #105 ) ) ;
#199 = APPROVAL_PERSON_ORGANIZATION ( #87, #58, #17 ) ;
#200 = DIRECTION ( 'NONE',  ( -1.000000000000000000, 0.000000000000000000, 0.000000000000000000 ) ) ;
#201 = CARTESIAN_POINT ( 'NONE',  ( 1.852650684897093823E-13, 0.000000000000000000, 2.979838546757873630 ) ) ;
ENDSEC;
END-ISO-10303-21;
