ISO-10303-21;
HEADER;
FILE_DESCRIPTION (( 'STEP AP203' ),
    '1' );
FILE_NAME ('010-0115T6_N-BK7_PCV_window.STEP',
    '2021-02-25T09:26:36',
    ( '' ),
    ( '' ),
    'SwSTEP 2.0',
    'SolidWorks 2019',
    '' );
FILE_SCHEMA (( 'CONFIG_CONTROL_DESIGN' ));
ENDSEC;

DATA;
#1 = ORIENTED_EDGE ( 'NONE', *, *, #191, .T. ) ;
#2 = ORIENTED_EDGE ( 'NONE', *, *, #29, .T. ) ;
#3 = CIRCLE ( 'NONE', #114, 6.349999999999999645 ) ;
#4 = LINE ( 'NONE', #43, #49 ) ;
#5 = ORIENTED_EDGE ( 'NONE', *, *, #191, .F. ) ;
#6 = MANIFOLD_SOLID_BREP ( 'Cut-Revolve1', #65 ) ;
#7 = DIRECTION ( 'NONE',  ( 0.000000000000000000, 0.000000000000000000, 1.000000000000000000 ) ) ;
#8 = ORIENTED_EDGE ( 'NONE', *, *, #128, .T. ) ;
#9 = DIRECTION ( 'NONE',  ( 1.000000000000000000, 0.000000000000000000, 0.000000000000000000 ) ) ;
#10 = DIRECTION ( 'NONE',  ( 0.000000000000000000, 0.000000000000000000, 1.000000000000000000 ) ) ;
#11 = CALENDAR_DATE ( 2021, 25, 2 ) ;
#12 = DIRECTION ( 'NONE',  ( 1.000000000000000000, 0.000000000000000000, 0.000000000000000000 ) ) ;
#13 = CC_DESIGN_DATE_AND_TIME_ASSIGNMENT ( #105, #142, ( #24 ) ) ;
#14 = SPHERICAL_SURFACE ( 'NONE', #178, 500.0000000000000000 ) ;
#15 = CALENDAR_DATE ( 2021, 25, 2 ) ;
#16 = APPROVAL_ROLE ( '' ) ;
#17 = APPLICATION_CONTEXT ( 'configuration controlled 3d designs of mechanical parts and assemblies' ) ;
#18 = LOCAL_TIME ( 11, 26, 36.00000000000000000, #171 ) ;
#19 = CARTESIAN_POINT ( 'NONE',  ( 0.000000000000000000, 0.000000000000000000, 6.000000000000000000 ) ) ;
#20 = LINE ( 'NONE', #75, #26 ) ;
#21 = AXIS2_PLACEMENT_3D ( 'NONE', #23, #150, #25 ) ;
#22 = DIRECTION ( 'NONE',  ( -1.000000000000000000, 0.000000000000000000, 0.000000000000000000 ) ) ;
#23 = CARTESIAN_POINT ( 'NONE',  ( 6.331740687315345895E-14, 0.000000000000000000, 505.9596758739648408 ) ) ;
#24 = PRODUCT_DEFINITION ( 'UNKNOWN', '', #86, #27 ) ;
#25 = DIRECTION ( 'NONE',  ( 1.000000000000000000, 1.224646799147353207E-16, 0.000000000000000000 ) ) ;
#26 = VECTOR ( 'NONE', #68, 1000.000000000000000 ) ;
#27 = DESIGN_CONTEXT ( 'detailed design', #17, 'design' ) ;
#28 = CARTESIAN_POINT ( 'NONE',  ( 0.000000000000000000, 0.000000000000000000, 0.000000000000000000 ) ) ;
#29 = EDGE_CURVE ( 'NONE', #115, #143, #51, .T. ) ;
#30 = APPROVAL_STATUS ( 'not_yet_approved' ) ;
#31 = APPROVAL_ROLE ( '' ) ;
#32 = PERSON_AND_ORGANIZATION_ROLE ( 'design_supplier' ) ;
#33 = CALENDAR_DATE ( 2021, 25, 2 ) ;
#34 = CC_DESIGN_PERSON_AND_ORGANIZATION_ASSIGNMENT ( #124, #32, ( #86 ) ) ;
#35 = EDGE_LOOP ( 'NONE', ( #152, #175, #2 ) ) ;
#36 = PLANE ( 'NONE',  #62 ) ;
#37 = LOCAL_TIME ( 11, 26, 36.00000000000000000, #106 ) ;
#38 = CARTESIAN_POINT ( 'NONE',  ( 6.331740687315345895E-14, 0.000000000000000000, 505.9596758739648408 ) ) ;
#39 = DIRECTION ( 'NONE',  ( -0.000000000000000000, -0.000000000000000000, -1.000000000000000000 ) ) ;
#40 = AXIS2_PLACEMENT_3D ( 'NONE', #38, #193, #90 ) ;
#41 = CARTESIAN_POINT ( 'NONE',  ( -6.349999999999999645, 0.000000000000000000, 0.000000000000000000 ) ) ;
#42 = EDGE_CURVE ( 'NONE', #115, #145, #137, .T. ) ;
#43 = CARTESIAN_POINT ( 'NONE',  ( -6.349999999999999645, 0.000000000000000000, 6.000000000000000000 ) ) ;
#44 = PERSON_AND_ORGANIZATION_ROLE ( 'design_owner' ) ;
#45 = PERSON_AND_ORGANIZATION_ROLE ( 'creator' ) ;
#46 = APPROVAL_ROLE ( '' ) ;
#47 = PERSON_AND_ORGANIZATION ( #155, #195 ) ;
#48 = CALENDAR_DATE ( 2021, 25, 2 ) ;
#49 = VECTOR ( 'NONE', #169, 1000.000000000000000 ) ;
#50 = ORIENTED_EDGE ( 'NONE', *, *, #162, .F. ) ;
#51 = CIRCLE ( 'NONE', #126, 500.0000000000000000 ) ;
#52 = CC_DESIGN_PERSON_AND_ORGANIZATION_ASSIGNMENT ( #73, #83, ( #64 ) ) ;
#53 = FACE_OUTER_BOUND ( 'NONE', #35, .T. ) ;
#54 = FACE_OUTER_BOUND ( 'NONE', #176, .T. ) ;
#55 = FACE_OUTER_BOUND ( 'NONE', #92, .T. ) ;
#56 = CARTESIAN_POINT ( 'NONE',  ( 6.331740687315345895E-14, 0.000000000000000000, 6.000000000000005329 ) ) ;
#57 = CARTESIAN_POINT ( 'NONE',  ( 6.331740687315345895E-14, 0.000000000000000000, 505.9596758739648408 ) ) ;
#58 = CARTESIAN_POINT ( 'NONE',  ( 6.331740687315345895E-14, 0.000000000000000000, 505.9596758739648408 ) ) ;
#59 = PERSON_AND_ORGANIZATION ( #155, #195 ) ;
#60 = LOCAL_TIME ( 11, 26, 36.00000000000000000, #84 ) ;
#61 = DATE_AND_TIME ( #199, #60 ) ;
#62 = AXIS2_PLACEMENT_3D ( 'NONE', #70, #148, #134 ) ;
#63 = APPROVAL_DATE_TIME ( #173, #146 ) ;
#64 = SECURITY_CLASSIFICATION ( '', '', #174 ) ;
#65 = CLOSED_SHELL ( 'NONE', ( #170, #136, #72, #121, #149 ) ) ;
#66 = DIRECTION ( 'NONE',  ( 0.000000000000000000, 1.000000000000000000, -0.000000000000000000 ) ) ;
#67 = EDGE_LOOP ( 'NONE', ( #109, #183, #1, #168 ) ) ;
#68 = DIRECTION ( 'NONE',  ( -0.000000000000000000, -0.000000000000000000, -1.000000000000000000 ) ) ;
#69 = DIRECTION ( 'NONE',  ( -0.000000000000000000, -0.000000000000000000, -1.000000000000000000 ) ) ;
#70 = CARTESIAN_POINT ( 'NONE',  ( 0.000000000000000000, 0.000000000000000000, 0.000000000000000000 ) ) ;
#71 =( GEOMETRIC_REPRESENTATION_CONTEXT ( 3 ) GLOBAL_UNCERTAINTY_ASSIGNED_CONTEXT ( ( #97 ) ) GLOBAL_UNIT_ASSIGNED_CONTEXT ( ( #184, #154, #156 ) ) REPRESENTATION_CONTEXT ( 'NONE', 'WORKASPACE' ) );
#72 = ADVANCED_FACE ( 'NONE', ( #79 ), #133, .T. ) ;
#73 = PERSON_AND_ORGANIZATION ( #155, #195 ) ;
#74 = APPROVAL_DATE_TIME ( #61, #141 ) ;
#75 = CARTESIAN_POINT ( 'NONE',  ( 6.349999999999999645, 7.776507174585692163E-16, 6.000000000000000000 ) ) ;
#76 = EDGE_CURVE ( 'NONE', #145, #115, #120, .T. ) ;
#77 = APPROVAL_PERSON_ORGANIZATION ( #59, #167, #31 ) ;
#78 = DIRECTION ( 'NONE',  ( 1.000000000000000000, 0.000000000000000000, 0.000000000000000000 ) ) ;
#79 = FACE_OUTER_BOUND ( 'NONE', #161, .T. ) ;
#80 = VERTEX_POINT ( 'NONE', #41 ) ;
#81 = PRODUCT_DEFINITION_SHAPE ( 'NONE', 'NONE',  #24 ) ;
#82 = DIRECTION ( 'NONE',  ( 1.000000000000000000, 0.000000000000000000, 0.000000000000000000 ) ) ;
#83 = PERSON_AND_ORGANIZATION_ROLE ( 'classification_officer' ) ;
#84 = COORDINATED_UNIVERSAL_TIME_OFFSET ( 2, 0, .AHEAD. ) ;
#85 = DATE_AND_TIME ( #33, #18 ) ;
#86 = PRODUCT_DEFINITION_FORMATION_WITH_SPECIFIED_SOURCE ( 'ANY', '', #165, .NOT_KNOWN. ) ;
#87 = APPROVAL_STATUS ( 'not_yet_approved' ) ;
#88 = ORIENTED_EDGE ( 'NONE', *, *, #107, .T. ) ;
#89 = CARTESIAN_POINT ( 'NONE',  ( 0.000000000000000000, 0.000000000000000000, 0.000000000000000000 ) ) ;
#90 = DIRECTION ( 'NONE',  ( 1.000000000000000000, 0.000000000000000000, 0.000000000000000000 ) ) ;
#91 = AXIS2_PLACEMENT_3D ( 'NONE', #89, #7, #163 ) ;
#92 = EDGE_LOOP ( 'NONE', ( #147, #88, #116 ) ) ;
#93 = CC_DESIGN_APPROVAL ( #146, ( #86 ) ) ;
#94 = VERTEX_POINT ( 'NONE', #192 ) ;
#95 = ORIENTED_EDGE ( 'NONE', *, *, #117, .T. ) ;
#96 = CC_DESIGN_PERSON_AND_ORGANIZATION_ASSIGNMENT ( #119, #44, ( #165 ) ) ;
#97 = UNCERTAINTY_MEASURE_WITH_UNIT (LENGTH_MEASURE( 1.000000000000000082E-05 ), #184, 'distance_accuracy_value', 'NONE');
#98 = APPLICATION_PROTOCOL_DEFINITION ( 'international standard', 'config_control_design', 1994, #201 ) ;
#99 = AXIS2_PLACEMENT_3D ( 'NONE', #118, #194, #22 ) ;
#100 = ADVANCED_BREP_SHAPE_REPRESENTATION ( '010-0115T6_N-BK7_PCV_window', ( #6, #127 ), #71 ) ;
#101 = DIRECTION ( 'NONE',  ( 0.000000000000000000, -1.000000000000000000, -0.000000000000000000 ) ) ;
#102 = DATE_AND_TIME ( #15, #123 ) ;
#103 = DIRECTION ( 'NONE',  ( 1.000000000000000000, 0.000000000000000000, 0.000000000000000000 ) ) ;
#104 = APPROVAL_STATUS ( 'not_yet_approved' ) ;
#105 = DATE_AND_TIME ( #11, #37 ) ;
#106 = COORDINATED_UNIVERSAL_TIME_OFFSET ( 2, 0, .AHEAD. ) ;
#107 = EDGE_CURVE ( 'NONE', #145, #143, #108, .T. ) ;
#108 = CIRCLE ( 'NONE', #21, 500.0000000000000000 ) ;
#109 = ORIENTED_EDGE ( 'NONE', *, *, #76, .T. ) ;
#110 = CC_DESIGN_PERSON_AND_ORGANIZATION_ASSIGNMENT ( #125, #188, ( #24 ) ) ;
#111 = CIRCLE ( 'NONE', #91, 6.349999999999999645 ) ;
#112 = CC_DESIGN_PERSON_AND_ORGANIZATION_ASSIGNMENT ( #172, #45, ( #86 ) ) ;
#113 = DIRECTION ( 'NONE',  ( -0.000000000000000000, -0.000000000000000000, -1.000000000000000000 ) ) ;
#114 = AXIS2_PLACEMENT_3D ( 'NONE', #157, #10, #82 ) ;
#115 = VERTEX_POINT ( 'NONE', #182 ) ;
#116 = ORIENTED_EDGE ( 'NONE', *, *, #29, .F. ) ;
#117 = EDGE_CURVE ( 'NONE', #145, #80, #4, .T. ) ;
#118 = CARTESIAN_POINT ( 'NONE',  ( 0.000000000000000000, 0.000000000000000000, 6.000000000000000000 ) ) ;
#119 = PERSON_AND_ORGANIZATION ( #155, #195 ) ;
#120 = CIRCLE ( 'NONE', #151, 6.350000000001803535 ) ;
#121 = ADVANCED_FACE ( 'NONE', ( #54 ), #36, .F. ) ;
#122 = DIRECTION ( 'NONE',  ( 0.000000000000000000, 0.000000000000000000, 1.000000000000000000 ) ) ;
#123 = LOCAL_TIME ( 11, 26, 36.00000000000000000, #135 ) ;
#124 = PERSON_AND_ORGANIZATION ( #155, #195 ) ;
#125 = PERSON_AND_ORGANIZATION ( #155, #195 ) ;
#126 = AXIS2_PLACEMENT_3D ( 'NONE', #57, #66, #131 ) ;
#127 = AXIS2_PLACEMENT_3D ( 'NONE', #28, #122, #12 ) ;
#128 = EDGE_CURVE ( 'NONE', #80, #94, #111, .T. ) ;
#129 = CARTESIAN_POINT ( 'NONE',  ( 9.393357685183729647E-14, 0.000000000000000000, 5.959675873964842552 ) ) ;
#130 = CC_DESIGN_SECURITY_CLASSIFICATION ( #64, ( #86 ) ) ;
#131 = DIRECTION ( 'NONE',  ( 0.000000000000000000, 0.000000000000000000, 1.000000000000000000 ) ) ;
#132 = CARTESIAN_POINT ( 'NONE',  ( 6.331740687315345895E-14, 0.000000000000000000, 6.000000000000005329 ) ) ;
#133 = CYLINDRICAL_SURFACE ( 'NONE', #99, 6.349999999999999645 ) ;
#134 = DIRECTION ( 'NONE',  ( 1.000000000000000000, 0.000000000000000000, -0.000000000000000000 ) ) ;
#135 = COORDINATED_UNIVERSAL_TIME_OFFSET ( 2, 0, .AHEAD. ) ;
#136 = ADVANCED_FACE ( 'NONE', ( #196 ), #164, .T. ) ;
#137 = CIRCLE ( 'NONE', #197, 6.350000000001803535 ) ;
#138 = APPROVAL_PERSON_ORGANIZATION ( #185, #146, #46 ) ;
#139 = DATE_TIME_ROLE ( 'classification_date' ) ;
#140 = APPROVAL_DATE_TIME ( #102, #167 ) ;
#141 = APPROVAL ( #30, 'UNSPECIFIED' ) ;
#142 = DATE_TIME_ROLE ( 'creation_date' ) ;
#143 = VERTEX_POINT ( 'NONE', #129 ) ;
#144 = ORIENTED_EDGE ( 'NONE', *, *, #42, .T. ) ;
#145 = VERTEX_POINT ( 'NONE', #190 ) ;
#146 = APPROVAL ( #104, 'UNSPECIFIED' ) ;
#147 = ORIENTED_EDGE ( 'NONE', *, *, #76, .F. ) ;
#148 = DIRECTION ( 'NONE',  ( 0.000000000000000000, 0.000000000000000000, 1.000000000000000000 ) ) ;
#149 = ADVANCED_FACE ( 'NONE', ( #53 ), #179, .F. ) ;
#150 = DIRECTION ( 'NONE',  ( 1.224646799147353207E-16, -1.000000000000000000, 0.000000000000000000 ) ) ;
#151 = AXIS2_PLACEMENT_3D ( 'NONE', #56, #39, #9 ) ;
#152 = ORIENTED_EDGE ( 'NONE', *, *, #107, .F. ) ;
#153 = LOCAL_TIME ( 11, 26, 36.00000000000000000, #187 ) ;
#154 =( NAMED_UNIT ( * ) PLANE_ANGLE_UNIT ( ) SI_UNIT ( $, .RADIAN. ) );
#155 = PERSON ( 'UNSPECIFIED', 'UNSPECIFIED', 'UNSPECIFIED', ('UNSPECIFIED'), ('UNSPECIFIED'), ('UNSPECIFIED') ) ;
#156 =( NAMED_UNIT ( * ) SI_UNIT ( $, .STERADIAN. ) SOLID_ANGLE_UNIT ( ) );
#157 = CARTESIAN_POINT ( 'NONE',  ( 0.000000000000000000, 0.000000000000000000, 0.000000000000000000 ) ) ;
#158 = AXIS2_PLACEMENT_3D ( 'NONE', #19, #113, #180 ) ;
#159 = SHAPE_DEFINITION_REPRESENTATION ( #81, #100 ) ;
#160 = APPROVAL_PERSON_ORGANIZATION ( #47, #141, #16 ) ;
#161 = EDGE_LOOP ( 'NONE', ( #50, #144, #95, #8 ) ) ;
#162 = EDGE_CURVE ( 'NONE', #115, #94, #20, .T. ) ;
#163 = DIRECTION ( 'NONE',  ( 1.000000000000000000, 0.000000000000000000, 0.000000000000000000 ) ) ;
#164 = CYLINDRICAL_SURFACE ( 'NONE', #158, 6.349999999999999645 ) ;
#165 = PRODUCT ( '010-0115T6_N-BK7_PCV_window', '010-0115T6_N-BK7_PCV_window', '', ( #198 ) ) ;
#166 = ORIENTED_EDGE ( 'NONE', *, *, #128, .F. ) ;
#167 = APPROVAL ( #87, 'UNSPECIFIED' ) ;
#168 = ORIENTED_EDGE ( 'NONE', *, *, #117, .F. ) ;
#169 = DIRECTION ( 'NONE',  ( -0.000000000000000000, -0.000000000000000000, -1.000000000000000000 ) ) ;
#170 = ADVANCED_FACE ( 'NONE', ( #55 ), #14, .F. ) ;
#171 = COORDINATED_UNIVERSAL_TIME_OFFSET ( 2, 0, .AHEAD. ) ;
#172 = PERSON_AND_ORGANIZATION ( #155, #195 ) ;
#173 = DATE_AND_TIME ( #48, #153 ) ;
#174 = SECURITY_CLASSIFICATION_LEVEL ( 'unclassified' ) ;
#175 = ORIENTED_EDGE ( 'NONE', *, *, #42, .F. ) ;
#176 = EDGE_LOOP ( 'NONE', ( #166, #5 ) ) ;
#177 = CC_DESIGN_APPROVAL ( #141, ( #24 ) ) ;
#178 = AXIS2_PLACEMENT_3D ( 'NONE', #58, #101, #103 ) ;
#179 = SPHERICAL_SURFACE ( 'NONE', #40, 500.0000000000000000 ) ;
#180 = DIRECTION ( 'NONE',  ( -1.000000000000000000, 0.000000000000000000, 0.000000000000000000 ) ) ;
#181 = CC_DESIGN_DATE_AND_TIME_ASSIGNMENT ( #85, #139, ( #64 ) ) ;
#182 = CARTESIAN_POINT ( 'NONE',  ( 6.350000000001866596, 7.776507174587978874E-16, 6.000000000000005329 ) ) ;
#183 = ORIENTED_EDGE ( 'NONE', *, *, #162, .T. ) ;
#184 =( LENGTH_UNIT ( ) NAMED_UNIT ( * ) SI_UNIT ( .MILLI., .METRE. ) );
#185 = PERSON_AND_ORGANIZATION ( #155, #195 ) ;
#186 = APPLICATION_PROTOCOL_DEFINITION ( 'international standard', 'config_control_design', 1994, #17 ) ;
#187 = COORDINATED_UNIVERSAL_TIME_OFFSET ( 2, 0, .AHEAD. ) ;
#188 = PERSON_AND_ORGANIZATION_ROLE ( 'creator' ) ;
#189 = PRODUCT_RELATED_PRODUCT_CATEGORY ( 'detail', '', ( #165 ) ) ;
#190 = CARTESIAN_POINT ( 'NONE',  ( -6.350000000001741363, 0.000000000000000000, 6.000000000000005329 ) ) ;
#191 = EDGE_CURVE ( 'NONE', #94, #80, #3, .T. ) ;
#192 = CARTESIAN_POINT ( 'NONE',  ( 6.349999999999999645, 7.776507174585692163E-16, 0.000000000000000000 ) ) ;
#193 = DIRECTION ( 'NONE',  ( 0.000000000000000000, -1.000000000000000000, -0.000000000000000000 ) ) ;
#194 = DIRECTION ( 'NONE',  ( -0.000000000000000000, -0.000000000000000000, -1.000000000000000000 ) ) ;
#195 = ORGANIZATION ( 'UNSPECIFIED', 'UNSPECIFIED', '' ) ;
#196 = FACE_OUTER_BOUND ( 'NONE', #67, .T. ) ;
#197 = AXIS2_PLACEMENT_3D ( 'NONE', #132, #69, #78 ) ;
#198 = MECHANICAL_CONTEXT ( 'NONE', #201, 'mechanical' ) ;
#199 = CALENDAR_DATE ( 2021, 25, 2 ) ;
#200 = CC_DESIGN_APPROVAL ( #167, ( #64 ) ) ;
#201 = APPLICATION_CONTEXT ( 'configuration controlled 3d designs of mechanical parts and assemblies' ) ;
ENDSEC;
END-ISO-10303-21;
