ISO-10303-21;
HEADER;
FILE_DESCRIPTION (( 'STEP AP203' ),
    '1' );
FILE_NAME ('010-0115E_N-BK7_PCV_window.STEP',
    '2021-02-25T08:22:05',
    ( '' ),
    ( '' ),
    'SwSTEP 2.0',
    'SolidWorks 2019',
    '' );
FILE_SCHEMA (( 'CONFIG_CONTROL_DESIGN' ));
ENDSEC;

DATA;
#1 = SPHERICAL_SURFACE ( 'NONE', #70, 500.0000000000000000 ) ;
#2 = DIRECTION ( 'NONE',  ( 0.000000000000000000, -1.000000000000000000, -0.000000000000000000 ) ) ;
#3 = CIRCLE ( 'NONE', #138, 6.349999999999999645 ) ;
#4 = PRODUCT ( '010-0115E_N-BK7_PCV_window', '010-0115E_N-BK7_PCV_window', '', ( #168 ) ) ;
#5 = PERSON_AND_ORGANIZATION ( #170, #64 ) ;
#6 = APPROVAL_ROLE ( '' ) ;
#7 = APPROVAL_DATE_TIME ( #116, #193 ) ;
#8 = ADVANCED_FACE ( 'NONE', ( #45 ), #143, .T. ) ;
#9 = COORDINATED_UNIVERSAL_TIME_OFFSET ( 2, 0, .AHEAD. ) ;
#10 = CIRCLE ( 'NONE', #44, 6.349999999999999645 ) ;
#11 = ORIENTED_EDGE ( 'NONE', *, *, #105, .T. ) ;
#12 = ORIENTED_EDGE ( 'NONE', *, *, #94, .F. ) ;
#13 = ORIENTED_EDGE ( 'NONE', *, *, #31, .T. ) ;
#14 = CARTESIAN_POINT ( 'NONE',  ( 6.331740687315345895E-14, 0.000000000000000000, 502.9596758739648408 ) ) ;
#15 = DIRECTION ( 'NONE',  ( 0.000000000000000000, 1.000000000000000000, -0.000000000000000000 ) ) ;
#16 = DIRECTION ( 'NONE',  ( -0.000000000000000000, -0.000000000000000000, -1.000000000000000000 ) ) ;
#17 = DIRECTION ( 'NONE',  ( 0.000000000000000000, 0.000000000000000000, 1.000000000000000000 ) ) ;
#18 = CARTESIAN_POINT ( 'NONE',  ( 6.349999999999999645, 7.776507174585692163E-16, 3.000000000000000000 ) ) ;
#19 = VECTOR ( 'NONE', #28, 1000.000000000000000 ) ;
#20 = ADVANCED_FACE ( 'NONE', ( #29 ), #95, .F. ) ;
#21 = PERSON_AND_ORGANIZATION ( #170, #64 ) ;
#22 = DATE_TIME_ROLE ( 'classification_date' ) ;
#23 = CC_DESIGN_DATE_AND_TIME_ASSIGNMENT ( #86, #50, ( #154 ) ) ;
#24 = APPROVAL_STATUS ( 'not_yet_approved' ) ;
#25 = CC_DESIGN_PERSON_AND_ORGANIZATION_ASSIGNMENT ( #191, #34, ( #155 ) ) ;
#26 = CIRCLE ( 'NONE', #160, 500.0000000000001137 ) ;
#27 = LINE ( 'NONE', #18, #19 ) ;
#28 = DIRECTION ( 'NONE',  ( -0.000000000000000000, -0.000000000000000000, -1.000000000000000000 ) ) ;
#29 = FACE_OUTER_BOUND ( 'NONE', #39, .T. ) ;
#30 = CARTESIAN_POINT ( 'NONE',  ( 6.331740687315345895E-14, 0.000000000000000000, 502.9596758739648408 ) ) ;
#31 = EDGE_CURVE ( 'NONE', #56, #42, #26, .T. ) ;
#32 = DATE_AND_TIME ( #190, #118 ) ;
#33 = AXIS2_PLACEMENT_3D ( 'NONE', #197, #58, #122 ) ;
#34 = PERSON_AND_ORGANIZATION_ROLE ( 'design_supplier' ) ;
#35 = PERSON_AND_ORGANIZATION ( #170, #64 ) ;
#36 = PERSON_AND_ORGANIZATION ( #170, #64 ) ;
#37 = UNCERTAINTY_MEASURE_WITH_UNIT (LENGTH_MEASURE( 1.000000000000000082E-05 ), #108, 'distance_accuracy_value', 'NONE');
#38 =( GEOMETRIC_REPRESENTATION_CONTEXT ( 3 ) GLOBAL_UNCERTAINTY_ASSIGNED_CONTEXT ( ( #37 ) ) GLOBAL_UNIT_ASSIGNED_CONTEXT ( ( #108, #179, #182 ) ) REPRESENTATION_CONTEXT ( 'NONE', 'WORKASPACE' ) );
#39 = EDGE_LOOP ( 'NONE', ( #152, #53 ) ) ;
#40 = CC_DESIGN_PERSON_AND_ORGANIZATION_ASSIGNMENT ( #21, #194, ( #4 ) ) ;
#41 = ORIENTED_EDGE ( 'NONE', *, *, #185, .F. ) ;
#42 = VERTEX_POINT ( 'NONE', #161 ) ;
#43 = CC_DESIGN_APPROVAL ( #139, ( #155 ) ) ;
#44 = AXIS2_PLACEMENT_3D ( 'NONE', #80, #188, #126 ) ;
#45 = FACE_OUTER_BOUND ( 'NONE', #54, .T. ) ;
#46 = DESIGN_CONTEXT ( 'detailed design', #171, 'design' ) ;
#47 = AXIS2_PLACEMENT_3D ( 'NONE', #61, #16, #142 ) ;
#48 = CARTESIAN_POINT ( 'NONE',  ( 6.350000000001866596, 7.776507174587978874E-16, 3.000000000000002665 ) ) ;
#49 = CYLINDRICAL_SURFACE ( 'NONE', #47, 6.349999999999999645 ) ;
#50 = DATE_TIME_ROLE ( 'creation_date' ) ;
#51 = PERSON_AND_ORGANIZATION ( #170, #64 ) ;
#52 = DATE_AND_TIME ( #72, #119 ) ;
#53 = ORIENTED_EDGE ( 'NONE', *, *, #172, .F. ) ;
#54 = EDGE_LOOP ( 'NONE', ( #57, #11, #120, #41 ) ) ;
#55 = ADVANCED_FACE ( 'NONE', ( #177 ), #1, .F. ) ;
#56 = VERTEX_POINT ( 'NONE', #48 ) ;
#57 = ORIENTED_EDGE ( 'NONE', *, *, #174, .T. ) ;
#58 = DIRECTION ( 'NONE',  ( -0.000000000000000000, -0.000000000000000000, -1.000000000000000000 ) ) ;
#59 = CARTESIAN_POINT ( 'NONE',  ( 0.000000000000000000, 0.000000000000000000, 0.000000000000000000 ) ) ;
#60 = ADVANCED_FACE ( 'NONE', ( #111 ), #49, .T. ) ;
#61 = CARTESIAN_POINT ( 'NONE',  ( 0.000000000000000000, 0.000000000000000000, 3.000000000000000000 ) ) ;
#62 = SPHERICAL_SURFACE ( 'NONE', #102, 500.0000000000000000 ) ;
#63 = CC_DESIGN_DATE_AND_TIME_ASSIGNMENT ( #135, #22, ( #87 ) ) ;
#64 = ORGANIZATION ( 'UNSPECIFIED', 'UNSPECIFIED', '' ) ;
#65 = DIRECTION ( 'NONE',  ( 1.000000000000000000, 0.000000000000000000, 0.000000000000000000 ) ) ;
#66 = DIRECTION ( 'NONE',  ( 0.000000000000000000, 0.000000000000000000, 1.000000000000000000 ) ) ;
#67 = PRODUCT_DEFINITION_SHAPE ( 'NONE', 'NONE',  #154 ) ;
#68 = PERSON_AND_ORGANIZATION_ROLE ( 'creator' ) ;
#69 = COORDINATED_UNIVERSAL_TIME_OFFSET ( 2, 0, .AHEAD. ) ;
#70 = AXIS2_PLACEMENT_3D ( 'NONE', #107, #2, #79 ) ;
#71 = APPLICATION_PROTOCOL_DEFINITION ( 'international standard', 'config_control_design', 1994, #171 ) ;
#72 = CALENDAR_DATE ( 2021, 25, 2 ) ;
#73 = EDGE_CURVE ( 'NONE', #186, #104, #3, .T. ) ;
#74 = EDGE_LOOP ( 'NONE', ( #75, #156, #183, #140 ) ) ;
#75 = ORIENTED_EDGE ( 'NONE', *, *, #105, .F. ) ;
#76 = AXIS2_PLACEMENT_3D ( 'NONE', #59, #189, #201 ) ;
#77 = VERTEX_POINT ( 'NONE', #178 ) ;
#78 = DIRECTION ( 'NONE',  ( -0.000000000000000000, -0.000000000000000000, -1.000000000000000000 ) ) ;
#79 = DIRECTION ( 'NONE',  ( 1.000000000000000000, 0.000000000000000000, 0.000000000000000000 ) ) ;
#80 = CARTESIAN_POINT ( 'NONE',  ( 0.000000000000000000, 0.000000000000000000, 0.000000000000000000 ) ) ;
#81 = EDGE_CURVE ( 'NONE', #56, #77, #127, .T. ) ;
#82 = DIRECTION ( 'NONE',  ( -0.000000000000000000, -0.000000000000000000, -1.000000000000000000 ) ) ;
#83 = AXIS2_PLACEMENT_3D ( 'NONE', #175, #128, #65 ) ;
#84 = DIRECTION ( 'NONE',  ( 1.000000000000000000, 0.000000000000000000, 0.000000000000000000 ) ) ;
#85 = COORDINATED_UNIVERSAL_TIME_OFFSET ( 2, 0, .AHEAD. ) ;
#86 = DATE_AND_TIME ( #99, #159 ) ;
#87 = SECURITY_CLASSIFICATION ( '', '', #134 ) ;
#88 = CALENDAR_DATE ( 2021, 25, 2 ) ;
#89 = ADVANCED_BREP_SHAPE_REPRESENTATION ( '010-0115E_N-BK7_PCV_window', ( #112, #180 ), #38 ) ;
#90 = EDGE_LOOP ( 'NONE', ( #121, #103, #153 ) ) ;
#91 = CLOSED_SHELL ( 'NONE', ( #55, #8, #60, #20, #129 ) ) ;
#92 = CARTESIAN_POINT ( 'NONE',  ( -6.349999999999999645, 0.000000000000000000, 3.000000000000000000 ) ) ;
#93 = APPROVAL_PERSON_ORGANIZATION ( #35, #139, #113 ) ;
#94 = EDGE_CURVE ( 'NONE', #77, #42, #145, .T. ) ;
#95 = PLANE ( 'NONE',  #76 ) ;
#96 = DIRECTION ( 'NONE',  ( 0.000000000000000000, -1.000000000000000000, -0.000000000000000000 ) ) ;
#97 = APPROVAL_STATUS ( 'not_yet_approved' ) ;
#98 = LOCAL_TIME ( 10, 22, 5.000000000000000000, #181 ) ;
#99 = CALENDAR_DATE ( 2021, 25, 2 ) ;
#100 = CC_DESIGN_PERSON_AND_ORGANIZATION_ASSIGNMENT ( #51, #114, ( #87 ) ) ;
#101 = CARTESIAN_POINT ( 'NONE',  ( 0.000000000000000000, 0.000000000000000000, 0.000000000000000000 ) ) ;
#102 = AXIS2_PLACEMENT_3D ( 'NONE', #14, #96, #84 ) ;
#103 = ORIENTED_EDGE ( 'NONE', *, *, #94, .T. ) ;
#104 = VERTEX_POINT ( 'NONE', #163 ) ;
#105 = EDGE_CURVE ( 'NONE', #56, #104, #27, .T. ) ;
#106 = CC_DESIGN_APPROVAL ( #176, ( #154 ) ) ;
#107 = CARTESIAN_POINT ( 'NONE',  ( 6.331740687315345895E-14, 0.000000000000000000, 502.9596758739648408 ) ) ;
#108 =( LENGTH_UNIT ( ) NAMED_UNIT ( * ) SI_UNIT ( .MILLI., .METRE. ) );
#109 = DIRECTION ( 'NONE',  ( 1.000000000000000000, 0.000000000000000000, 0.000000000000000000 ) ) ;
#110 = DIRECTION ( 'NONE',  ( 1.224646799147353207E-16, -1.000000000000000000, 0.000000000000000000 ) ) ;
#111 = FACE_OUTER_BOUND ( 'NONE', #74, .T. ) ;
#112 = MANIFOLD_SOLID_BREP ( 'Cut-Revolve1', #91 ) ;
#113 = APPROVAL_ROLE ( '' ) ;
#114 = PERSON_AND_ORGANIZATION_ROLE ( 'classification_officer' ) ;
#115 = APPLICATION_CONTEXT ( 'configuration controlled 3d designs of mechanical parts and assemblies' ) ;
#116 = DATE_AND_TIME ( #132, #198 ) ;
#117 = CC_DESIGN_SECURITY_CLASSIFICATION ( #87, ( #155 ) ) ;
#118 = LOCAL_TIME ( 10, 22, 5.000000000000000000, #130 ) ;
#119 = LOCAL_TIME ( 10, 22, 5.000000000000000000, #9 ) ;
#120 = ORIENTED_EDGE ( 'NONE', *, *, #172, .T. ) ;
#121 = ORIENTED_EDGE ( 'NONE', *, *, #174, .F. ) ;
#122 = DIRECTION ( 'NONE',  ( 1.000000000000000000, 0.000000000000000000, 0.000000000000000000 ) ) ;
#123 = CIRCLE ( 'NONE', #33, 6.350000000001803535 ) ;
#124 = DIRECTION ( 'NONE',  ( 1.000000000000000000, 1.224646799147353207E-16, 0.000000000000000000 ) ) ;
#125 = CARTESIAN_POINT ( 'NONE',  ( 0.000000000000000000, 0.000000000000000000, 0.000000000000000000 ) ) ;
#126 = DIRECTION ( 'NONE',  ( 1.000000000000000000, 0.000000000000000000, 0.000000000000000000 ) ) ;
#127 = CIRCLE ( 'NONE', #83, 6.350000000001803535 ) ;
#128 = DIRECTION ( 'NONE',  ( -0.000000000000000000, -0.000000000000000000, -1.000000000000000000 ) ) ;
#129 = ADVANCED_FACE ( 'NONE', ( #157 ), #62, .F. ) ;
#130 = COORDINATED_UNIVERSAL_TIME_OFFSET ( 2, 0, .AHEAD. ) ;
#131 = AXIS2_PLACEMENT_3D ( 'NONE', #184, #82, #158 ) ;
#132 = CALENDAR_DATE ( 2021, 25, 2 ) ;
#133 = CC_DESIGN_PERSON_AND_ORGANIZATION_ASSIGNMENT ( #36, #166, ( #154 ) ) ;
#134 = SECURITY_CLASSIFICATION_LEVEL ( 'unclassified' ) ;
#135 = DATE_AND_TIME ( #88, #98 ) ;
#136 = CC_DESIGN_APPROVAL ( #193, ( #87 ) ) ;
#137 = PRODUCT_RELATED_PRODUCT_CATEGORY ( 'detail', '', ( #4 ) ) ;
#138 = AXIS2_PLACEMENT_3D ( 'NONE', #125, #17, #109 ) ;
#139 = APPROVAL ( #24, 'UNSPECIFIED' ) ;
#140 = ORIENTED_EDGE ( 'NONE', *, *, #73, .T. ) ;
#141 = CARTESIAN_POINT ( 'NONE',  ( -6.349999999999999645, 0.000000000000000000, 0.000000000000000000 ) ) ;
#142 = DIRECTION ( 'NONE',  ( -1.000000000000000000, 0.000000000000000000, 0.000000000000000000 ) ) ;
#143 = CYLINDRICAL_SURFACE ( 'NONE', #131, 6.349999999999999645 ) ;
#144 = EDGE_LOOP ( 'NONE', ( #12, #196, #13 ) ) ;
#145 = CIRCLE ( 'NONE', #195, 500.0000000000000000 ) ;
#146 = DIRECTION ( 'NONE',  ( 1.000000000000000000, 0.000000000000000000, 0.000000000000000000 ) ) ;
#147 = APPROVAL_DATE_TIME ( #52, #139 ) ;
#148 = PERSON_AND_ORGANIZATION ( #170, #64 ) ;
#149 = APPROVAL_DATE_TIME ( #32, #176 ) ;
#150 = APPROVAL_ROLE ( '' ) ;
#151 = VECTOR ( 'NONE', #78, 1000.000000000000000 ) ;
#152 = ORIENTED_EDGE ( 'NONE', *, *, #73, .F. ) ;
#153 = ORIENTED_EDGE ( 'NONE', *, *, #31, .F. ) ;
#154 = PRODUCT_DEFINITION ( 'UNKNOWN', '', #155, #46 ) ;
#155 = PRODUCT_DEFINITION_FORMATION_WITH_SPECIFIED_SOURCE ( 'ANY', '', #4, .NOT_KNOWN. ) ;
#156 = ORIENTED_EDGE ( 'NONE', *, *, #81, .T. ) ;
#157 = FACE_OUTER_BOUND ( 'NONE', #144, .T. ) ;
#158 = DIRECTION ( 'NONE',  ( -1.000000000000000000, 0.000000000000000000, 0.000000000000000000 ) ) ;
#159 = LOCAL_TIME ( 10, 22, 5.000000000000000000, #85 ) ;
#160 = AXIS2_PLACEMENT_3D ( 'NONE', #200, #15, #162 ) ;
#161 = CARTESIAN_POINT ( 'NONE',  ( 9.393357685183729647E-14, 0.000000000000000000, 2.959675873964839887 ) ) ;
#162 = DIRECTION ( 'NONE',  ( 0.000000000000000000, 0.000000000000000000, 1.000000000000000000 ) ) ;
#163 = CARTESIAN_POINT ( 'NONE',  ( 6.349999999999999645, 7.776507174585692163E-16, 0.000000000000000000 ) ) ;
#164 = APPROVAL_PERSON_ORGANIZATION ( #148, #193, #150 ) ;
#165 = APPLICATION_PROTOCOL_DEFINITION ( 'international standard', 'config_control_design', 1994, #115 ) ;
#166 = PERSON_AND_ORGANIZATION_ROLE ( 'creator' ) ;
#167 = APPROVAL_STATUS ( 'not_yet_approved' ) ;
#168 = MECHANICAL_CONTEXT ( 'NONE', #115, 'mechanical' ) ;
#169 = PERSON_AND_ORGANIZATION ( #170, #64 ) ;
#170 = PERSON ( 'UNSPECIFIED', 'UNSPECIFIED', 'UNSPECIFIED', ('UNSPECIFIED'), ('UNSPECIFIED'), ('UNSPECIFIED') ) ;
#171 = APPLICATION_CONTEXT ( 'configuration controlled 3d designs of mechanical parts and assemblies' ) ;
#172 = EDGE_CURVE ( 'NONE', #104, #186, #10, .T. ) ;
#173 = LINE ( 'NONE', #92, #151 ) ;
#174 = EDGE_CURVE ( 'NONE', #77, #56, #123, .T. ) ;
#175 = CARTESIAN_POINT ( 'NONE',  ( 6.331740687315345895E-14, 0.000000000000000000, 3.000000000000002665 ) ) ;
#176 = APPROVAL ( #167, 'UNSPECIFIED' ) ;
#177 = FACE_OUTER_BOUND ( 'NONE', #90, .T. ) ;
#178 = CARTESIAN_POINT ( 'NONE',  ( -6.350000000001741363, 0.000000000000000000, 3.000000000000002665 ) ) ;
#179 =( NAMED_UNIT ( * ) PLANE_ANGLE_UNIT ( ) SI_UNIT ( $, .RADIAN. ) );
#180 = AXIS2_PLACEMENT_3D ( 'NONE', #101, #66, #146 ) ;
#181 = COORDINATED_UNIVERSAL_TIME_OFFSET ( 2, 0, .AHEAD. ) ;
#182 =( NAMED_UNIT ( * ) SI_UNIT ( $, .STERADIAN. ) SOLID_ANGLE_UNIT ( ) );
#183 = ORIENTED_EDGE ( 'NONE', *, *, #185, .T. ) ;
#184 = CARTESIAN_POINT ( 'NONE',  ( 0.000000000000000000, 0.000000000000000000, 3.000000000000000000 ) ) ;
#185 = EDGE_CURVE ( 'NONE', #77, #186, #173, .T. ) ;
#186 = VERTEX_POINT ( 'NONE', #141 ) ;
#187 = CC_DESIGN_PERSON_AND_ORGANIZATION_ASSIGNMENT ( #5, #68, ( #155 ) ) ;
#188 = DIRECTION ( 'NONE',  ( 0.000000000000000000, 0.000000000000000000, 1.000000000000000000 ) ) ;
#189 = DIRECTION ( 'NONE',  ( 0.000000000000000000, 0.000000000000000000, 1.000000000000000000 ) ) ;
#190 = CALENDAR_DATE ( 2021, 25, 2 ) ;
#191 = PERSON_AND_ORGANIZATION ( #170, #64 ) ;
#192 = SHAPE_DEFINITION_REPRESENTATION ( #67, #89 ) ;
#193 = APPROVAL ( #97, 'UNSPECIFIED' ) ;
#194 = PERSON_AND_ORGANIZATION_ROLE ( 'design_owner' ) ;
#195 = AXIS2_PLACEMENT_3D ( 'NONE', #30, #110, #124 ) ;
#196 = ORIENTED_EDGE ( 'NONE', *, *, #81, .F. ) ;
#197 = CARTESIAN_POINT ( 'NONE',  ( 6.331740687315345895E-14, 0.000000000000000000, 3.000000000000002665 ) ) ;
#198 = LOCAL_TIME ( 10, 22, 5.000000000000000000, #69 ) ;
#199 = APPROVAL_PERSON_ORGANIZATION ( #169, #176, #6 ) ;
#200 = CARTESIAN_POINT ( 'NONE',  ( 6.331740687315345895E-14, 0.000000000000000000, 502.9596758739648408 ) ) ;
#201 = DIRECTION ( 'NONE',  ( 1.000000000000000000, 0.000000000000000000, -0.000000000000000000 ) ) ;
ENDSEC;
END-ISO-10303-21;
