ISO-10303-21;
HEADER;
FILE_DESCRIPTION (( 'STEP AP203' ),
    '1' );
FILE_NAME ('010-0111T6_N-BK7_PCV_window.STEP',
    '2021-02-25T09:23:29',
    ( '' ),
    ( '' ),
    'SwSTEP 2.0',
    'SolidWorks 2019',
    '' );
FILE_SCHEMA (( 'CONFIG_CONTROL_DESIGN' ));
ENDSEC;

DATA;
#1 = DIRECTION ( 'NONE',  ( -0.000000000000000000, -0.000000000000000000, -1.000000000000000000 ) ) ;
#2 = ADVANCED_FACE ( 'NONE', ( #8 ), #70, .F. ) ;
#3 = CARTESIAN_POINT ( 'NONE',  ( 0.000000000000000000, 0.000000000000000000, 0.000000000000000000 ) ) ;
#4 = CIRCLE ( 'NONE', #201, 6.349999999999999645 ) ;
#5 =( NAMED_UNIT ( * ) PLANE_ANGLE_UNIT ( ) SI_UNIT ( $, .RADIAN. ) );
#6 = LOCAL_TIME ( 11, 23, 29.00000000000000000, #153 ) ;
#7 = PERSON ( 'UNSPECIFIED', 'UNSPECIFIED', 'UNSPECIFIED', ('UNSPECIFIED'), ('UNSPECIFIED'), ('UNSPECIFIED') ) ;
#8 = FACE_OUTER_BOUND ( 'NONE', #127, .T. ) ;
#9 = AXIS2_PLACEMENT_3D ( 'NONE', #165, #135, #28 ) ;
#10 = PERSON_AND_ORGANIZATION ( #7, #55 ) ;
#11 = ORIENTED_EDGE ( 'NONE', *, *, #58, .T. ) ;
#12 = APPROVAL ( #27, 'UNSPECIFIED' ) ;
#13 = EDGE_LOOP ( 'NONE', ( #108, #110, #76 ) ) ;
#14 = PRODUCT_RELATED_PRODUCT_CATEGORY ( 'detail', '', ( #40 ) ) ;
#15 = EDGE_LOOP ( 'NONE', ( #73, #140, #125, #92 ) ) ;
#16 = CALENDAR_DATE ( 2021, 25, 2 ) ;
#17 = PERSON_AND_ORGANIZATION ( #7, #55 ) ;
#18 = DIRECTION ( 'NONE',  ( -1.000000000000000000, 0.000000000000000000, 0.000000000000000000 ) ) ;
#19 = CC_DESIGN_APPROVAL ( #68, ( #155 ) ) ;
#20 = CIRCLE ( 'NONE', #83, 6.350000000002896883 ) ;
#21 = UNCERTAINTY_MEASURE_WITH_UNIT (LENGTH_MEASURE( 1.000000000000000082E-05 ), #65, 'distance_accuracy_value', 'NONE');
#22 = APPROVAL_STATUS ( 'not_yet_approved' ) ;
#23 = FACE_OUTER_BOUND ( 'NONE', #162, .T. ) ;
#24 = AXIS2_PLACEMENT_3D ( 'NONE', #36, #172, #84 ) ;
#25 = CC_DESIGN_PERSON_AND_ORGANIZATION_ASSIGNMENT ( #118, #173, ( #40 ) ) ;
#26 = MANIFOLD_SOLID_BREP ( 'Cut-Revolve1', #43 ) ;
#27 = APPROVAL_STATUS ( 'not_yet_approved' ) ;
#28 = DIRECTION ( 'NONE',  ( 0.000000000000000000, 0.000000000000000000, 1.000000000000000000 ) ) ;
#29 = EDGE_CURVE ( 'NONE', #181, #32, #114, .T. ) ;
#30 = CARTESIAN_POINT ( 'NONE',  ( 3.816391647148975608E-14, 0.000000000000000000, 305.9327883043132488 ) ) ;
#31 = PERSON_AND_ORGANIZATION ( #7, #55 ) ;
#32 = VERTEX_POINT ( 'NONE', #103 ) ;
#33 = DIRECTION ( 'NONE',  ( -0.000000000000000000, -0.000000000000000000, -1.000000000000000000 ) ) ;
#34 = EDGE_CURVE ( 'NONE', #147, #32, #187, .T. ) ;
#35 = DIRECTION ( 'NONE',  ( -0.000000000000000000, -0.000000000000000000, -1.000000000000000000 ) ) ;
#36 = CARTESIAN_POINT ( 'NONE',  ( 0.000000000000000000, 0.000000000000000000, 0.000000000000000000 ) ) ;
#37 = SECURITY_CLASSIFICATION ( '', '', #77 ) ;
#38 = EDGE_CURVE ( 'NONE', #89, #60, #160, .T. ) ;
#39 = DESIGN_CONTEXT ( 'detailed design', #198, 'design' ) ;
#40 = PRODUCT ( '010-0111T6_N-BK7_PCV_window', '010-0111T6_N-BK7_PCV_window', '', ( #191 ) ) ;
#41 = APPLICATION_PROTOCOL_DEFINITION ( 'international standard', 'config_control_design', 1994, #198 ) ;
#42 = CC_DESIGN_SECURITY_CLASSIFICATION ( #37, ( #155 ) ) ;
#43 = CLOSED_SHELL ( 'NONE', ( #161, #67, #86, #2, #101 ) ) ;
#44 = CALENDAR_DATE ( 2021, 25, 2 ) ;
#45 = CARTESIAN_POINT ( 'NONE',  ( 0.000000000000000000, 0.000000000000000000, 6.000000000000000000 ) ) ;
#46 = PERSON_AND_ORGANIZATION ( #7, #55 ) ;
#47 = DIRECTION ( 'NONE',  ( -0.000000000000000000, -0.000000000000000000, -1.000000000000000000 ) ) ;
#48 = PERSON_AND_ORGANIZATION_ROLE ( 'design_supplier' ) ;
#49 = CC_DESIGN_PERSON_AND_ORGANIZATION_ASSIGNMENT ( #31, #48, ( #155 ) ) ;
#50 = CARTESIAN_POINT ( 'NONE',  ( 3.816391647148975608E-14, 0.000000000000000000, 305.9327883043132488 ) ) ;
#51 = COORDINATED_UNIVERSAL_TIME_OFFSET ( 2, 0, .AHEAD. ) ;
#52 = FACE_OUTER_BOUND ( 'NONE', #13, .T. ) ;
#53 = DIRECTION ( 'NONE',  ( 1.000000000000000000, 0.000000000000000000, 0.000000000000000000 ) ) ;
#54 = COORDINATED_UNIVERSAL_TIME_OFFSET ( 2, 0, .AHEAD. ) ;
#55 = ORGANIZATION ( 'UNSPECIFIED', 'UNSPECIFIED', '' ) ;
#56 = AXIS2_PLACEMENT_3D ( 'NONE', #170, #33, #18 ) ;
#57 = DIRECTION ( 'NONE',  ( 1.000000000000000000, 0.000000000000000000, -0.000000000000000000 ) ) ;
#58 = EDGE_CURVE ( 'NONE', #181, #89, #148, .T. ) ;
#59 = ADVANCED_BREP_SHAPE_REPRESENTATION ( '010-0111T6_N-BK7_PCV_window', ( #26, #24 ), #151 ) ;
#60 = VERTEX_POINT ( 'NONE', #124 ) ;
#61 = CARTESIAN_POINT ( 'NONE',  ( 0.000000000000000000, 0.000000000000000000, 0.000000000000000000 ) ) ;
#62 = APPROVAL ( #109, 'UNSPECIFIED' ) ;
#63 = APPROVAL_ROLE ( '' ) ;
#64 = CALENDAR_DATE ( 2021, 25, 2 ) ;
#65 =( LENGTH_UNIT ( ) NAMED_UNIT ( * ) SI_UNIT ( .MILLI., .METRE. ) );
#66 = CARTESIAN_POINT ( 'NONE',  ( 6.350000000002935074, 7.776507174589287397E-16, 6.000000000000005329 ) ) ;
#67 = ADVANCED_FACE ( 'NONE', ( #90 ), #149, .T. ) ;
#68 = APPROVAL ( #22, 'UNSPECIFIED' ) ;
#69 = APPROVAL_PERSON_ORGANIZATION ( #200, #62, #136 ) ;
#70 = PLANE ( 'NONE',  #196 ) ;
#71 = ORIENTED_EDGE ( 'NONE', *, *, #38, .T. ) ;
#72 = APPLICATION_PROTOCOL_DEFINITION ( 'international standard', 'config_control_design', 1994, #82 ) ;
#73 = ORIENTED_EDGE ( 'NONE', *, *, #146, .T. ) ;
#74 = DATE_TIME_ROLE ( 'creation_date' ) ;
#75 = ORIENTED_EDGE ( 'NONE', *, *, #126, .F. ) ;
#76 = ORIENTED_EDGE ( 'NONE', *, *, #34, .F. ) ;
#77 = SECURITY_CLASSIFICATION_LEVEL ( 'unclassified' ) ;
#78 = CARTESIAN_POINT ( 'NONE',  ( -6.349999999999999645, 0.000000000000000000, 0.000000000000000000 ) ) ;
#79 = DIRECTION ( 'NONE',  ( 0.000000000000000000, 0.000000000000000000, 1.000000000000000000 ) ) ;
#80 = CARTESIAN_POINT ( 'NONE',  ( 3.816391647148975608E-14, 0.000000000000000000, 6.000000000000005329 ) ) ;
#81 = CARTESIAN_POINT ( 'NONE',  ( 3.816391647148975608E-14, 0.000000000000000000, 305.9327883043132488 ) ) ;
#82 = APPLICATION_CONTEXT ( 'configuration controlled 3d designs of mechanical parts and assemblies' ) ;
#83 = AXIS2_PLACEMENT_3D ( 'NONE', #80, #35, #154 ) ;
#84 = DIRECTION ( 'NONE',  ( 1.000000000000000000, 0.000000000000000000, 0.000000000000000000 ) ) ;
#85 = LOCAL_TIME ( 11, 23, 29.00000000000000000, #167 ) ;
#86 = ADVANCED_FACE ( 'NONE', ( #184 ), #133, .T. ) ;
#87 = ORIENTED_EDGE ( 'NONE', *, *, #38, .F. ) ;
#88 = DIRECTION ( 'NONE',  ( 0.000000000000000000, 0.000000000000000000, 1.000000000000000000 ) ) ;
#89 = VERTEX_POINT ( 'NONE', #78 ) ;
#90 = FACE_OUTER_BOUND ( 'NONE', #15, .T. ) ;
#91 = AXIS2_PLACEMENT_3D ( 'NONE', #45, #47, #171 ) ;
#92 = ORIENTED_EDGE ( 'NONE', *, *, #58, .F. ) ;
#93 = VECTOR ( 'NONE', #1, 1000.000000000000000 ) ;
#94 = DIRECTION ( 'NONE',  ( -0.000000000000000000, -0.000000000000000000, -1.000000000000000000 ) ) ;
#95 = DATE_AND_TIME ( #64, #6 ) ;
#96 = PERSON_AND_ORGANIZATION ( #7, #55 ) ;
#97 = DIRECTION ( 'NONE',  ( 1.000000000000000000, 0.000000000000000000, 0.000000000000000000 ) ) ;
#98 = APPROVAL_ROLE ( '' ) ;
#99 = EDGE_CURVE ( 'NONE', #60, #89, #4, .T. ) ;
#100 = AXIS2_PLACEMENT_3D ( 'NONE', #61, #88, #180 ) ;
#101 = ADVANCED_FACE ( 'NONE', ( #23 ), #169, .F. ) ;
#102 = CC_DESIGN_DATE_AND_TIME_ASSIGNMENT ( #137, #141, ( #37 ) ) ;
#103 = CARTESIAN_POINT ( 'NONE',  ( 5.653361845870005985E-14, 0.000000000000000000, 5.932788304313207917 ) ) ;
#104 =( NAMED_UNIT ( * ) SI_UNIT ( $, .STERADIAN. ) SOLID_ANGLE_UNIT ( ) );
#105 = ORIENTED_EDGE ( 'NONE', *, *, #174, .F. ) ;
#106 = APPROVAL_DATE_TIME ( #185, #62 ) ;
#107 = CC_DESIGN_DATE_AND_TIME_ASSIGNMENT ( #179, #74, ( #123 ) ) ;
#108 = ORIENTED_EDGE ( 'NONE', *, *, #146, .F. ) ;
#109 = APPROVAL_STATUS ( 'not_yet_approved' ) ;
#110 = ORIENTED_EDGE ( 'NONE', *, *, #29, .T. ) ;
#111 = AXIS2_PLACEMENT_3D ( 'NONE', #142, #94, #97 ) ;
#112 = DIRECTION ( 'NONE',  ( 1.000000000000000000, 0.000000000000000000, 0.000000000000000000 ) ) ;
#113 = SHAPE_DEFINITION_REPRESENTATION ( #115, #59 ) ;
#114 = CIRCLE ( 'NONE', #138, 300.0000000000000568 ) ;
#115 = PRODUCT_DEFINITION_SHAPE ( 'NONE', 'NONE',  #123 ) ;
#116 = CALENDAR_DATE ( 2021, 25, 2 ) ;
#117 = AXIS2_PLACEMENT_3D ( 'NONE', #50, #157, #53 ) ;
#118 = PERSON_AND_ORGANIZATION ( #7, #55 ) ;
#119 = DIRECTION ( 'NONE',  ( 1.224646799147353207E-16, -1.000000000000000000, 0.000000000000000000 ) ) ;
#120 = COORDINATED_UNIVERSAL_TIME_OFFSET ( 2, 0, .AHEAD. ) ;
#121 = LOCAL_TIME ( 11, 23, 29.00000000000000000, #120 ) ;
#122 = PERSON_AND_ORGANIZATION_ROLE ( 'classification_officer' ) ;
#123 = PRODUCT_DEFINITION ( 'UNKNOWN', '', #155, #39 ) ;
#124 = CARTESIAN_POINT ( 'NONE',  ( 6.349999999999999645, 7.776507174585692163E-16, 0.000000000000000000 ) ) ;
#125 = ORIENTED_EDGE ( 'NONE', *, *, #99, .T. ) ;
#126 = EDGE_CURVE ( 'NONE', #147, #181, #20, .T. ) ;
#127 = EDGE_LOOP ( 'NONE', ( #87, #168 ) ) ;
#128 = VECTOR ( 'NONE', #164, 1000.000000000000000 ) ;
#129 = CC_DESIGN_PERSON_AND_ORGANIZATION_ASSIGNMENT ( #46, #122, ( #37 ) ) ;
#130 = PERSON_AND_ORGANIZATION_ROLE ( 'creator' ) ;
#131 = LOCAL_TIME ( 11, 23, 29.00000000000000000, #51 ) ;
#132 = CIRCLE ( 'NONE', #111, 6.350000000002896883 ) ;
#133 = CYLINDRICAL_SURFACE ( 'NONE', #56, 6.349999999999999645 ) ;
#134 = APPROVAL_PERSON_ORGANIZATION ( #10, #12, #98 ) ;
#135 = DIRECTION ( 'NONE',  ( 0.000000000000000000, 1.000000000000000000, -0.000000000000000000 ) ) ;
#136 = APPROVAL_ROLE ( '' ) ;
#137 = DATE_AND_TIME ( #178, #131 ) ;
#138 = AXIS2_PLACEMENT_3D ( 'NONE', #30, #119, #175 ) ;
#139 = CARTESIAN_POINT ( 'NONE',  ( 0.000000000000000000, 0.000000000000000000, 0.000000000000000000 ) ) ;
#140 = ORIENTED_EDGE ( 'NONE', *, *, #174, .T. ) ;
#141 = DATE_TIME_ROLE ( 'classification_date' ) ;
#142 = CARTESIAN_POINT ( 'NONE',  ( 3.816391647148975608E-14, 0.000000000000000000, 6.000000000000005329 ) ) ;
#143 = CARTESIAN_POINT ( 'NONE',  ( 6.349999999999999645, 7.776507174585692163E-16, 6.000000000000000000 ) ) ;
#144 = CC_DESIGN_PERSON_AND_ORGANIZATION_ASSIGNMENT ( #158, #190, ( #123 ) ) ;
#145 = DIRECTION ( 'NONE',  ( 0.000000000000000000, -1.000000000000000000, -0.000000000000000000 ) ) ;
#146 = EDGE_CURVE ( 'NONE', #181, #147, #132, .T. ) ;
#147 = VERTEX_POINT ( 'NONE', #66 ) ;
#148 = LINE ( 'NONE', #177, #128 ) ;
#149 = CYLINDRICAL_SURFACE ( 'NONE', #91, 6.349999999999999645 ) ;
#150 = ORIENTED_EDGE ( 'NONE', *, *, #29, .F. ) ;
#151 =( GEOMETRIC_REPRESENTATION_CONTEXT ( 3 ) GLOBAL_UNCERTAINTY_ASSIGNED_CONTEXT ( ( #21 ) ) GLOBAL_UNIT_ASSIGNED_CONTEXT ( ( #65, #5, #104 ) ) REPRESENTATION_CONTEXT ( 'NONE', 'WORKASPACE' ) );
#152 = ORIENTED_EDGE ( 'NONE', *, *, #34, .T. ) ;
#153 = COORDINATED_UNIVERSAL_TIME_OFFSET ( 2, 0, .AHEAD. ) ;
#154 = DIRECTION ( 'NONE',  ( 1.000000000000000000, 0.000000000000000000, 0.000000000000000000 ) ) ;
#155 = PRODUCT_DEFINITION_FORMATION_WITH_SPECIFIED_SOURCE ( 'ANY', '', #40, .NOT_KNOWN. ) ;
#156 = DIRECTION ( 'NONE',  ( 1.000000000000000000, 0.000000000000000000, 0.000000000000000000 ) ) ;
#157 = DIRECTION ( 'NONE',  ( 0.000000000000000000, -1.000000000000000000, -0.000000000000000000 ) ) ;
#158 = PERSON_AND_ORGANIZATION ( #7, #55 ) ;
#159 = LOCAL_TIME ( 11, 23, 29.00000000000000000, #54 ) ;
#160 = CIRCLE ( 'NONE', #100, 6.349999999999999645 ) ;
#161 = ADVANCED_FACE ( 'NONE', ( #52 ), #199, .F. ) ;
#162 = EDGE_LOOP ( 'NONE', ( #150, #75, #152 ) ) ;
#163 = APPROVAL_DATE_TIME ( #176, #12 ) ;
#164 = DIRECTION ( 'NONE',  ( -0.000000000000000000, -0.000000000000000000, -1.000000000000000000 ) ) ;
#165 = CARTESIAN_POINT ( 'NONE',  ( 3.816391647148975608E-14, 0.000000000000000000, 305.9327883043132488 ) ) ;
#166 = CC_DESIGN_PERSON_AND_ORGANIZATION_ASSIGNMENT ( #17, #130, ( #155 ) ) ;
#167 = COORDINATED_UNIVERSAL_TIME_OFFSET ( 2, 0, .AHEAD. ) ;
#168 = ORIENTED_EDGE ( 'NONE', *, *, #99, .F. ) ;
#169 = SPHERICAL_SURFACE ( 'NONE', #117, 300.0000000000000568 ) ;
#170 = CARTESIAN_POINT ( 'NONE',  ( 0.000000000000000000, 0.000000000000000000, 6.000000000000000000 ) ) ;
#171 = DIRECTION ( 'NONE',  ( -1.000000000000000000, 0.000000000000000000, 0.000000000000000000 ) ) ;
#172 = DIRECTION ( 'NONE',  ( 0.000000000000000000, 0.000000000000000000, 1.000000000000000000 ) ) ;
#173 = PERSON_AND_ORGANIZATION_ROLE ( 'design_owner' ) ;
#174 = EDGE_CURVE ( 'NONE', #147, #60, #188, .T. ) ;
#175 = DIRECTION ( 'NONE',  ( 1.000000000000000000, 1.224646799147353207E-16, 0.000000000000000000 ) ) ;
#176 = DATE_AND_TIME ( #44, #121 ) ;
#177 = CARTESIAN_POINT ( 'NONE',  ( -6.349999999999999645, 0.000000000000000000, 6.000000000000000000 ) ) ;
#178 = CALENDAR_DATE ( 2021, 25, 2 ) ;
#179 = DATE_AND_TIME ( #116, #159 ) ;
#180 = DIRECTION ( 'NONE',  ( 1.000000000000000000, 0.000000000000000000, 0.000000000000000000 ) ) ;
#181 = VERTEX_POINT ( 'NONE', #189 ) ;
#182 = APPROVAL_DATE_TIME ( #95, #68 ) ;
#183 = AXIS2_PLACEMENT_3D ( 'NONE', #81, #145, #112 ) ;
#184 = FACE_OUTER_BOUND ( 'NONE', #192, .T. ) ;
#185 = DATE_AND_TIME ( #16, #85 ) ;
#186 = APPROVAL_PERSON_ORGANIZATION ( #96, #68, #63 ) ;
#187 = CIRCLE ( 'NONE', #9, 300.0000000000000568 ) ;
#188 = LINE ( 'NONE', #143, #93 ) ;
#189 = CARTESIAN_POINT ( 'NONE',  ( -6.350000000002859579, 0.000000000000000000, 6.000000000000005329 ) ) ;
#190 = PERSON_AND_ORGANIZATION_ROLE ( 'creator' ) ;
#191 = MECHANICAL_CONTEXT ( 'NONE', #82, 'mechanical' ) ;
#192 = EDGE_LOOP ( 'NONE', ( #105, #195, #11, #71 ) ) ;
#193 = CC_DESIGN_APPROVAL ( #12, ( #123 ) ) ;
#194 = CC_DESIGN_APPROVAL ( #62, ( #37 ) ) ;
#195 = ORIENTED_EDGE ( 'NONE', *, *, #126, .T. ) ;
#196 = AXIS2_PLACEMENT_3D ( 'NONE', #139, #197, #57 ) ;
#197 = DIRECTION ( 'NONE',  ( 0.000000000000000000, 0.000000000000000000, 1.000000000000000000 ) ) ;
#198 = APPLICATION_CONTEXT ( 'configuration controlled 3d designs of mechanical parts and assemblies' ) ;
#199 = SPHERICAL_SURFACE ( 'NONE', #183, 300.0000000000000568 ) ;
#200 = PERSON_AND_ORGANIZATION ( #7, #55 ) ;
#201 = AXIS2_PLACEMENT_3D ( 'NONE', #3, #79, #156 ) ;
ENDSEC;
END-ISO-10303-21;
