ISO-10303-21;
HEADER;
FILE_DESCRIPTION (( 'STEP AP203' ),
    '1' );
FILE_NAME ('010-0111E_N-BK7_PCV_window.STEP',
    '2021-02-25T08:19:58',
    ( '' ),
    ( '' ),
    'SwSTEP 2.0',
    'SolidWorks 2019',
    '' );
FILE_SCHEMA (( 'CONFIG_CONTROL_DESIGN' ));
ENDSEC;

DATA;
#1 = COORDINATED_UNIVERSAL_TIME_OFFSET ( 2, 0, .AHEAD. ) ;
#2 = CALENDAR_DATE ( 2021, 25, 2 ) ;
#3 = AXIS2_PLACEMENT_3D ( 'NONE', #13, #106, #138 ) ;
#4 = APPLICATION_PROTOCOL_DEFINITION ( 'international standard', 'config_control_design', 1994, #83 ) ;
#5 = EDGE_LOOP ( 'NONE', ( #29, #155, #73, #44 ) ) ;
#6 = APPROVAL_STATUS ( 'not_yet_approved' ) ;
#7 = AXIS2_PLACEMENT_3D ( 'NONE', #50, #147, #17 ) ;
#8 = PRODUCT_DEFINITION ( 'UNKNOWN', '', #40, #129 ) ;
#9 = APPROVAL_STATUS ( 'not_yet_approved' ) ;
#10 = COORDINATED_UNIVERSAL_TIME_OFFSET ( 2, 0, .AHEAD. ) ;
#11 = FACE_OUTER_BOUND ( 'NONE', #180, .T. ) ;
#12 = CYLINDRICAL_SURFACE ( 'NONE', #124, 6.349999999999999645 ) ;
#13 = CARTESIAN_POINT ( 'NONE',  ( 3.816391647148975608E-14, 0.000000000000000000, 302.9327883043132488 ) ) ;
#14 = MANIFOLD_SOLID_BREP ( 'Cut-Revolve1', #15 ) ;
#15 = CLOSED_SHELL ( 'NONE', ( #101, #183, #42, #61, #135 ) ) ;
#16 = CC_DESIGN_APPROVAL ( #169, ( #143 ) ) ;
#17 = DIRECTION ( 'NONE',  ( 1.000000000000000000, 0.000000000000000000, -0.000000000000000000 ) ) ;
#18 = CARTESIAN_POINT ( 'NONE',  ( 3.816391647148975608E-14, 0.000000000000000000, 302.9327883043132488 ) ) ;
#19 = APPLICATION_PROTOCOL_DEFINITION ( 'international standard', 'config_control_design', 1994, #49 ) ;
#20 = DATE_TIME_ROLE ( 'creation_date' ) ;
#21 = APPROVAL ( #6, 'UNSPECIFIED' ) ;
#22 = APPROVAL_DATE_TIME ( #176, #174 ) ;
#23 = EDGE_LOOP ( 'NONE', ( #153, #178, #191, #189 ) ) ;
#24 = APPROVAL_PERSON_ORGANIZATION ( #148, #174, #84 ) ;
#25 = LOCAL_TIME ( 10, 19, 58.00000000000000000, #10 ) ;
#26 = PRODUCT_DEFINITION_SHAPE ( 'NONE', 'NONE',  #8 ) ;
#27 = PERSON_AND_ORGANIZATION_ROLE ( 'design_owner' ) ;
#28 = EDGE_CURVE ( 'NONE', #150, #85, #184, .T. ) ;
#29 = ORIENTED_EDGE ( 'NONE', *, *, #104, .T. ) ;
#30 = DATE_AND_TIME ( #179, #25 ) ;
#31 = PERSON_AND_ORGANIZATION_ROLE ( 'creator' ) ;
#32 = CARTESIAN_POINT ( 'NONE',  ( -6.349999999999999645, 0.000000000000000000, 0.000000000000000000 ) ) ;
#33 = AXIS2_PLACEMENT_3D ( 'NONE', #64, #76, #198 ) ;
#34 = CARTESIAN_POINT ( 'NONE',  ( 3.816391647148975608E-14, 0.000000000000000000, 3.000000000000002665 ) ) ;
#35 = CC_DESIGN_PERSON_AND_ORGANIZATION_ASSIGNMENT ( #91, #31, ( #40 ) ) ;
#36 = CARTESIAN_POINT ( 'NONE',  ( 5.653361845870005354E-14, 0.000000000000000000, 2.932788304313316274 ) ) ;
#37 = VECTOR ( 'NONE', #196, 1000.000000000000000 ) ;
#38 = DIRECTION ( 'NONE',  ( -1.000000000000000000, 0.000000000000000000, 0.000000000000000000 ) ) ;
#39 = SPHERICAL_SURFACE ( 'NONE', #164, 299.9999999999999432 ) ;
#40 = PRODUCT_DEFINITION_FORMATION_WITH_SPECIFIED_SOURCE ( 'ANY', '', #69, .NOT_KNOWN. ) ;
#41 =( NAMED_UNIT ( * ) PLANE_ANGLE_UNIT ( ) SI_UNIT ( $, .RADIAN. ) );
#42 = ADVANCED_FACE ( 'NONE', ( #75 ), #12, .T. ) ;
#43 = ORIENTED_EDGE ( 'NONE', *, *, #55, .T. ) ;
#44 = ORIENTED_EDGE ( 'NONE', *, *, #97, .F. ) ;
#45 = CIRCLE ( 'NONE', #80, 6.349999999999999645 ) ;
#46 = COORDINATED_UNIVERSAL_TIME_OFFSET ( 2, 0, .AHEAD. ) ;
#47 = PLANE ( 'NONE',  #7 ) ;
#48 = EDGE_CURVE ( 'NONE', #85, #122, #182, .T. ) ;
#49 = APPLICATION_CONTEXT ( 'configuration controlled 3d designs of mechanical parts and assemblies' ) ;
#50 = CARTESIAN_POINT ( 'NONE',  ( 0.000000000000000000, 0.000000000000000000, 0.000000000000000000 ) ) ;
#51 = FACE_OUTER_BOUND ( 'NONE', #5, .T. ) ;
#52 = LOCAL_TIME ( 10, 19, 58.00000000000000000, #149 ) ;
#53 = DIRECTION ( 'NONE',  ( -0.000000000000000000, -0.000000000000000000, -1.000000000000000000 ) ) ;
#54 = LOCAL_TIME ( 10, 19, 58.00000000000000000, #46 ) ;
#55 = EDGE_CURVE ( 'NONE', #150, #122, #60, .T. ) ;
#56 = PERSON_AND_ORGANIZATION_ROLE ( 'creator' ) ;
#57 = VERTEX_POINT ( 'NONE', #32 ) ;
#58 = DATE_TIME_ROLE ( 'classification_date' ) ;
#59 = PERSON_AND_ORGANIZATION_ROLE ( 'classification_officer' ) ;
#60 = CIRCLE ( 'NONE', #112, 299.9999999999999432 ) ;
#61 = ADVANCED_FACE ( 'NONE', ( #11 ), #47, .F. ) ;
#62 = DIRECTION ( 'NONE',  ( 0.000000000000000000, 0.000000000000000000, 1.000000000000000000 ) ) ;
#63 = DIRECTION ( 'NONE',  ( 0.000000000000000000, 0.000000000000000000, 1.000000000000000000 ) ) ;
#64 = CARTESIAN_POINT ( 'NONE',  ( 3.816391647148975608E-14, 0.000000000000000000, 3.000000000000002665 ) ) ;
#65 = FACE_OUTER_BOUND ( 'NONE', #134, .T. ) ;
#66 = CC_DESIGN_DATE_AND_TIME_ASSIGNMENT ( #86, #20, ( #8 ) ) ;
#67 = CALENDAR_DATE ( 2021, 25, 2 ) ;
#68 = COORDINATED_UNIVERSAL_TIME_OFFSET ( 2, 0, .AHEAD. ) ;
#69 = PRODUCT ( '010-0111E_N-BK7_PCV_window', '010-0111E_N-BK7_PCV_window', '', ( #100 ) ) ;
#70 = ORIENTED_EDGE ( 'NONE', *, *, #201, .F. ) ;
#71 = ORIENTED_EDGE ( 'NONE', *, *, #55, .F. ) ;
#72 = APPROVAL_ROLE ( '' ) ;
#73 = ORIENTED_EDGE ( 'NONE', *, *, #201, .T. ) ;
#74 = PERSON_AND_ORGANIZATION ( #90, #125 ) ;
#75 = FACE_OUTER_BOUND ( 'NONE', #23, .T. ) ;
#76 = DIRECTION ( 'NONE',  ( -0.000000000000000000, -0.000000000000000000, -1.000000000000000000 ) ) ;
#77 = CARTESIAN_POINT ( 'NONE',  ( 6.349999999999999645, 7.776507174585692163E-16, 3.000000000000000000 ) ) ;
#78 = DIRECTION ( 'NONE',  ( 1.000000000000000000, 0.000000000000000000, 0.000000000000000000 ) ) ;
#79 = LINE ( 'NONE', #77, #37 ) ;
#80 = AXIS2_PLACEMENT_3D ( 'NONE', #141, #62, #185 ) ;
#81 = PERSON_AND_ORGANIZATION ( #90, #125 ) ;
#82 = ORIENTED_EDGE ( 'NONE', *, *, #28, .F. ) ;
#83 = APPLICATION_CONTEXT ( 'configuration controlled 3d designs of mechanical parts and assemblies' ) ;
#84 = APPROVAL_ROLE ( '' ) ;
#85 = VERTEX_POINT ( 'NONE', #130 ) ;
#86 = DATE_AND_TIME ( #118, #52 ) ;
#87 = CIRCLE ( 'NONE', #33, 6.349999999997432809 ) ;
#88 = EDGE_CURVE ( 'NONE', #150, #102, #79, .T. ) ;
#89 = PERSON_AND_ORGANIZATION ( #90, #125 ) ;
#90 = PERSON ( 'UNSPECIFIED', 'UNSPECIFIED', 'UNSPECIFIED', ('UNSPECIFIED'), ('UNSPECIFIED'), ('UNSPECIFIED') ) ;
#91 = PERSON_AND_ORGANIZATION ( #90, #125 ) ;
#92 = DIRECTION ( 'NONE',  ( -0.000000000000000000, -0.000000000000000000, -1.000000000000000000 ) ) ;
#93 = VECTOR ( 'NONE', #53, 1000.000000000000000 ) ;
#94 = FACE_OUTER_BOUND ( 'NONE', #115, .T. ) ;
#95 = CARTESIAN_POINT ( 'NONE',  ( 0.000000000000000000, 0.000000000000000000, 0.000000000000000000 ) ) ;
#96 = UNCERTAINTY_MEASURE_WITH_UNIT (LENGTH_MEASURE( 1.000000000000000082E-05 ), #132, 'distance_accuracy_value', 'NONE');
#97 = EDGE_CURVE ( 'NONE', #85, #57, #145, .T. ) ;
#98 = AXIS2_PLACEMENT_3D ( 'NONE', #166, #177, #113 ) ;
#99 = ORIENTED_EDGE ( 'NONE', *, *, #48, .F. ) ;
#100 = MECHANICAL_CONTEXT ( 'NONE', #49, 'mechanical' ) ;
#101 = ADVANCED_FACE ( 'NONE', ( #94 ), #161, .F. ) ;
#102 = VERTEX_POINT ( 'NONE', #199 ) ;
#103 = CALENDAR_DATE ( 2021, 25, 2 ) ;
#104 = EDGE_CURVE ( 'NONE', #85, #150, #87, .T. ) ;
#105 = PERSON_AND_ORGANIZATION ( #90, #125 ) ;
#106 = DIRECTION ( 'NONE',  ( 1.224646799147353207E-16, -1.000000000000000000, 0.000000000000000000 ) ) ;
#107 = DIRECTION ( 'NONE',  ( -0.000000000000000000, -0.000000000000000000, -1.000000000000000000 ) ) ;
#108 = CARTESIAN_POINT ( 'NONE',  ( 3.816391647148975608E-14, 0.000000000000000000, 302.9327883043132488 ) ) ;
#109 = CARTESIAN_POINT ( 'NONE',  ( 6.349999999997471001, 7.776507174584144023E-16, 3.000000000000002665 ) ) ;
#110 = CARTESIAN_POINT ( 'NONE',  ( 0.000000000000000000, 0.000000000000000000, 3.000000000000000000 ) ) ;
#111 = EDGE_CURVE ( 'NONE', #57, #102, #45, .T. ) ;
#112 = AXIS2_PLACEMENT_3D ( 'NONE', #171, #195, #63 ) ;
#113 = DIRECTION ( 'NONE',  ( 1.000000000000000000, 0.000000000000000000, 0.000000000000000000 ) ) ;
#114 = CC_DESIGN_APPROVAL ( #21, ( #40 ) ) ;
#115 = EDGE_LOOP ( 'NONE', ( #168, #190, #71 ) ) ;
#116 = APPROVAL_STATUS ( 'not_yet_approved' ) ;
#117 = ORIENTED_EDGE ( 'NONE', *, *, #111, .F. ) ;
#118 = CALENDAR_DATE ( 2021, 25, 2 ) ;
#119 = LOCAL_TIME ( 10, 19, 58.00000000000000000, #1 ) ;
#120 = CC_DESIGN_PERSON_AND_ORGANIZATION_ASSIGNMENT ( #152, #27, ( #69 ) ) ;
#121 = PERSON_AND_ORGANIZATION_ROLE ( 'design_supplier' ) ;
#122 = VERTEX_POINT ( 'NONE', #36 ) ;
#123 = APPROVAL_DATE_TIME ( #30, #169 ) ;
#124 = AXIS2_PLACEMENT_3D ( 'NONE', #139, #107, #159 ) ;
#125 = ORGANIZATION ( 'UNSPECIFIED', 'UNSPECIFIED', '' ) ;
#126 = DIRECTION ( 'NONE',  ( 1.000000000000000000, 0.000000000000000000, 0.000000000000000000 ) ) ;
#127 = DIRECTION ( 'NONE',  ( 0.000000000000000000, -1.000000000000000000, -0.000000000000000000 ) ) ;
#128 = CYLINDRICAL_SURFACE ( 'NONE', #142, 6.349999999999999645 ) ;
#129 = DESIGN_CONTEXT ( 'detailed design', #83, 'design' ) ;
#130 = CARTESIAN_POINT ( 'NONE',  ( -6.349999999997394617, 0.000000000000000000, 3.000000000000002665 ) ) ;
#131 = DATE_AND_TIME ( #67, #119 ) ;
#132 =( LENGTH_UNIT ( ) NAMED_UNIT ( * ) SI_UNIT ( .MILLI., .METRE. ) );
#133 = DIRECTION ( 'NONE',  ( 1.000000000000000000, 0.000000000000000000, 0.000000000000000000 ) ) ;
#134 = EDGE_LOOP ( 'NONE', ( #99, #82, #43 ) ) ;
#135 = ADVANCED_FACE ( 'NONE', ( #65 ), #39, .F. ) ;
#136 = AXIS2_PLACEMENT_3D ( 'NONE', #108, #160, #78 ) ;
#137 = CC_DESIGN_APPROVAL ( #174, ( #8 ) ) ;
#138 = DIRECTION ( 'NONE',  ( 1.000000000000000000, 1.224646799147353207E-16, 0.000000000000000000 ) ) ;
#139 = CARTESIAN_POINT ( 'NONE',  ( 0.000000000000000000, 0.000000000000000000, 3.000000000000000000 ) ) ;
#140 = CC_DESIGN_PERSON_AND_ORGANIZATION_ASSIGNMENT ( #81, #56, ( #8 ) ) ;
#141 = CARTESIAN_POINT ( 'NONE',  ( 0.000000000000000000, 0.000000000000000000, 0.000000000000000000 ) ) ;
#142 = AXIS2_PLACEMENT_3D ( 'NONE', #110, #173, #38 ) ;
#143 = SECURITY_CLASSIFICATION ( '', '', #157 ) ;
#144 = CARTESIAN_POINT ( 'NONE',  ( -6.349999999999999645, 0.000000000000000000, 3.000000000000000000 ) ) ;
#145 = LINE ( 'NONE', #144, #93 ) ;
#146 = CIRCLE ( 'NONE', #200, 6.349999999999999645 ) ;
#147 = DIRECTION ( 'NONE',  ( 0.000000000000000000, 0.000000000000000000, 1.000000000000000000 ) ) ;
#148 = PERSON_AND_ORGANIZATION ( #90, #125 ) ;
#149 = COORDINATED_UNIVERSAL_TIME_OFFSET ( 2, 0, .AHEAD. ) ;
#150 = VERTEX_POINT ( 'NONE', #109 ) ;
#151 =( GEOMETRIC_REPRESENTATION_CONTEXT ( 3 ) GLOBAL_UNCERTAINTY_ASSIGNED_CONTEXT ( ( #96 ) ) GLOBAL_UNIT_ASSIGNED_CONTEXT ( ( #132, #41, #188 ) ) REPRESENTATION_CONTEXT ( 'NONE', 'WORKASPACE' ) );
#152 = PERSON_AND_ORGANIZATION ( #90, #125 ) ;
#153 = ORIENTED_EDGE ( 'NONE', *, *, #88, .F. ) ;
#154 = PERSON_AND_ORGANIZATION ( #90, #125 ) ;
#155 = ORIENTED_EDGE ( 'NONE', *, *, #88, .T. ) ;
#156 = ADVANCED_BREP_SHAPE_REPRESENTATION ( '010-0111E_N-BK7_PCV_window', ( #14, #98 ), #151 ) ;
#157 = SECURITY_CLASSIFICATION_LEVEL ( 'unclassified' ) ;
#158 = APPROVAL_ROLE ( '' ) ;
#159 = DIRECTION ( 'NONE',  ( -1.000000000000000000, 0.000000000000000000, 0.000000000000000000 ) ) ;
#160 = DIRECTION ( 'NONE',  ( 0.000000000000000000, -1.000000000000000000, -0.000000000000000000 ) ) ;
#161 = SPHERICAL_SURFACE ( 'NONE', #136, 299.9999999999999432 ) ;
#162 = CC_DESIGN_SECURITY_CLASSIFICATION ( #143, ( #40 ) ) ;
#163 = DIRECTION ( 'NONE',  ( 0.000000000000000000, 0.000000000000000000, 1.000000000000000000 ) ) ;
#164 = AXIS2_PLACEMENT_3D ( 'NONE', #18, #127, #126 ) ;
#165 = CC_DESIGN_PERSON_AND_ORGANIZATION_ASSIGNMENT ( #105, #59, ( #143 ) ) ;
#166 = CARTESIAN_POINT ( 'NONE',  ( 0.000000000000000000, 0.000000000000000000, 0.000000000000000000 ) ) ;
#167 = LOCAL_TIME ( 10, 19, 58.00000000000000000, #68 ) ;
#168 = ORIENTED_EDGE ( 'NONE', *, *, #104, .F. ) ;
#169 = APPROVAL ( #9, 'UNSPECIFIED' ) ;
#170 = SHAPE_DEFINITION_REPRESENTATION ( #26, #156 ) ;
#171 = CARTESIAN_POINT ( 'NONE',  ( 3.816391647148975608E-14, 0.000000000000000000, 302.9327883043132488 ) ) ;
#172 = PRODUCT_RELATED_PRODUCT_CATEGORY ( 'detail', '', ( #69 ) ) ;
#173 = DIRECTION ( 'NONE',  ( -0.000000000000000000, -0.000000000000000000, -1.000000000000000000 ) ) ;
#174 = APPROVAL ( #116, 'UNSPECIFIED' ) ;
#175 = AXIS2_PLACEMENT_3D ( 'NONE', #34, #92, #193 ) ;
#176 = DATE_AND_TIME ( #2, #167 ) ;
#177 = DIRECTION ( 'NONE',  ( 0.000000000000000000, 0.000000000000000000, 1.000000000000000000 ) ) ;
#178 = ORIENTED_EDGE ( 'NONE', *, *, #28, .T. ) ;
#179 = CALENDAR_DATE ( 2021, 25, 2 ) ;
#180 = EDGE_LOOP ( 'NONE', ( #117, #70 ) ) ;
#181 = DATE_AND_TIME ( #103, #54 ) ;
#182 = CIRCLE ( 'NONE', #3, 299.9999999999999432 ) ;
#183 = ADVANCED_FACE ( 'NONE', ( #51 ), #128, .T. ) ;
#184 = CIRCLE ( 'NONE', #175, 6.349999999997432809 ) ;
#185 = DIRECTION ( 'NONE',  ( 1.000000000000000000, 0.000000000000000000, 0.000000000000000000 ) ) ;
#186 = APPROVAL_DATE_TIME ( #131, #21 ) ;
#187 = APPROVAL_PERSON_ORGANIZATION ( #74, #169, #158 ) ;
#188 =( NAMED_UNIT ( * ) SI_UNIT ( $, .STERADIAN. ) SOLID_ANGLE_UNIT ( ) );
#189 = ORIENTED_EDGE ( 'NONE', *, *, #111, .T. ) ;
#190 = ORIENTED_EDGE ( 'NONE', *, *, #48, .T. ) ;
#191 = ORIENTED_EDGE ( 'NONE', *, *, #97, .T. ) ;
#192 = CC_DESIGN_PERSON_AND_ORGANIZATION_ASSIGNMENT ( #89, #121, ( #40 ) ) ;
#193 = DIRECTION ( 'NONE',  ( 1.000000000000000000, 0.000000000000000000, 0.000000000000000000 ) ) ;
#194 = APPROVAL_PERSON_ORGANIZATION ( #154, #21, #72 ) ;
#195 = DIRECTION ( 'NONE',  ( 0.000000000000000000, 1.000000000000000000, -0.000000000000000000 ) ) ;
#196 = DIRECTION ( 'NONE',  ( -0.000000000000000000, -0.000000000000000000, -1.000000000000000000 ) ) ;
#197 = CC_DESIGN_DATE_AND_TIME_ASSIGNMENT ( #181, #58, ( #143 ) ) ;
#198 = DIRECTION ( 'NONE',  ( 1.000000000000000000, 0.000000000000000000, 0.000000000000000000 ) ) ;
#199 = CARTESIAN_POINT ( 'NONE',  ( 6.349999999999999645, 7.776507174585692163E-16, 0.000000000000000000 ) ) ;
#200 = AXIS2_PLACEMENT_3D ( 'NONE', #95, #163, #133 ) ;
#201 = EDGE_CURVE ( 'NONE', #102, #57, #146, .T. ) ;
ENDSEC;
END-ISO-10303-21;
