ISO-10303-21;
HEADER;
FILE_DESCRIPTION (( 'STEP AP203' ),
    '1' );
FILE_NAME ('010-0110T6_N-BK7_PCV_window.STEP',
    '2021-02-25T09:22:12',
    ( '' ),
    ( '' ),
    'SwSTEP 2.0',
    'SolidWorks 2019',
    '' );
FILE_SCHEMA (( 'CONFIG_CONTROL_DESIGN' ));
ENDSEC;

DATA;
#1 = DATE_AND_TIME ( #182, #33 ) ;
#2 = VERTEX_POINT ( 'NONE', #37 ) ;
#3 = VERTEX_POINT ( 'NONE', #88 ) ;
#4 = DIRECTION ( 'NONE',  ( -0.000000000000000000, -0.000000000000000000, -1.000000000000000000 ) ) ;
#5 = CARTESIAN_POINT ( 'NONE',  ( 0.000000000000000000, 0.000000000000000000, 0.000000000000000000 ) ) ;
#6 = DIRECTION ( 'NONE',  ( 1.000000000000000000, 0.000000000000000000, 0.000000000000000000 ) ) ;
#7 = CLOSED_SHELL ( 'NONE', ( #177, #52, #199, #39, #85 ) ) ;
#8 = FACE_OUTER_BOUND ( 'NONE', #19, .T. ) ;
#9 = DIRECTION ( 'NONE',  ( 0.000000000000000000, -1.000000000000000000, -0.000000000000000000 ) ) ;
#10 = APPROVAL ( #97, 'UNSPECIFIED' ) ;
#11 = PERSON_AND_ORGANIZATION ( #118, #184 ) ;
#12 = UNCERTAINTY_MEASURE_WITH_UNIT (LENGTH_MEASURE( 1.000000000000000082E-05 ), #149, 'distance_accuracy_value', 'NONE');
#13 = VECTOR ( 'NONE', #176, 1000.000000000000000 ) ;
#14 = APPROVAL_ROLE ( '' ) ;
#15 = CALENDAR_DATE ( 2021, 25, 2 ) ;
#16 = APPROVAL_DATE_TIME ( #198, #10 ) ;
#17 = EDGE_CURVE ( 'NONE', #132, #112, #134, .T. ) ;
#18 = ORIENTED_EDGE ( 'NONE', *, *, #92, .F. ) ;
#19 = EDGE_LOOP ( 'NONE', ( #82, #96, #168, #70 ) ) ;
#20 = SECURITY_CLASSIFICATION ( '', '', #152 ) ;
#21 = DIRECTION ( 'NONE',  ( 0.000000000000000000, 1.000000000000000000, -0.000000000000000000 ) ) ;
#22 = SPHERICAL_SURFACE ( 'NONE', #175, 250.0000000000000000 ) ;
#23 = ORIENTED_EDGE ( 'NONE', *, *, #147, .F. ) ;
#24 = FACE_OUTER_BOUND ( 'NONE', #51, .T. ) ;
#25 = EDGE_CURVE ( 'NONE', #3, #89, #155, .T. ) ;
#26 = CARTESIAN_POINT ( 'NONE',  ( 6.349999999999999645, 7.776507174585692163E-16, 6.000000000000000000 ) ) ;
#27 = DIRECTION ( 'NONE',  ( 1.000000000000000000, 0.000000000000000000, 0.000000000000000000 ) ) ;
#28 = PERSON_AND_ORGANIZATION_ROLE ( 'design_supplier' ) ;
#29 = CC_DESIGN_APPROVAL ( #10, ( #20 ) ) ;
#30 = PERSON_AND_ORGANIZATION_ROLE ( 'design_owner' ) ;
#31 = PERSON_AND_ORGANIZATION ( #118, #184 ) ;
#32 = APPROVAL_STATUS ( 'not_yet_approved' ) ;
#33 = LOCAL_TIME ( 11, 22, 12.00000000000000000, #34 ) ;
#34 = COORDINATED_UNIVERSAL_TIME_OFFSET ( 2, 0, .AHEAD. ) ;
#35 = AXIS2_PLACEMENT_3D ( 'NONE', #58, #171, #117 ) ;
#36 = AXIS2_PLACEMENT_3D ( 'NONE', #145, #192, #116 ) ;
#37 = CARTESIAN_POINT ( 'NONE',  ( -6.350000000001225331, 0.000000000000000000, 6.000000000000005329 ) ) ;
#38 = FACE_OUTER_BOUND ( 'NONE', #170, .T. ) ;
#39 = ADVANCED_FACE ( 'NONE', ( #40 ), #102, .F. ) ;
#40 = FACE_OUTER_BOUND ( 'NONE', #84, .T. ) ;
#41 = CARTESIAN_POINT ( 'NONE',  ( 3.209238430557093125E-14, 0.000000000000000000, 255.9193419885703520 ) ) ;
#42 = DIRECTION ( 'NONE',  ( -0.000000000000000000, -0.000000000000000000, -1.000000000000000000 ) ) ;
#43 = CARTESIAN_POINT ( 'NONE',  ( 6.349999999999999645, 7.776507174585692163E-16, 0.000000000000000000 ) ) ;
#44 = PRODUCT_DEFINITION_FORMATION_WITH_SPECIFIED_SOURCE ( 'ANY', '', #65, .NOT_KNOWN. ) ;
#45 = COORDINATED_UNIVERSAL_TIME_OFFSET ( 2, 0, .AHEAD. ) ;
#46 = DIRECTION ( 'NONE',  ( 1.000000000000000000, 0.000000000000000000, 0.000000000000000000 ) ) ;
#47 = CC_DESIGN_PERSON_AND_ORGANIZATION_ASSIGNMENT ( #124, #48, ( #44 ) ) ;
#48 = PERSON_AND_ORGANIZATION_ROLE ( 'creator' ) ;
#49 = PERSON_AND_ORGANIZATION ( #118, #184 ) ;
#50 = APPLICATION_CONTEXT ( 'configuration controlled 3d designs of mechanical parts and assemblies' ) ;
#51 = EDGE_LOOP ( 'NONE', ( #67, #18, #72 ) ) ;
#52 = ADVANCED_FACE ( 'NONE', ( #38 ), #191, .T. ) ;
#53 = ORIENTED_EDGE ( 'NONE', *, *, #165, .T. ) ;
#54 = CARTESIAN_POINT ( 'NONE',  ( 4.740046929491285001E-14, 0.000000000000000000, 5.919341988570359092 ) ) ;
#55 = CC_DESIGN_APPROVAL ( #98, ( #44 ) ) ;
#56 = DIRECTION ( 'NONE',  ( 1.000000000000000000, 0.000000000000000000, 0.000000000000000000 ) ) ;
#57 =( NAMED_UNIT ( * ) SI_UNIT ( $, .STERADIAN. ) SOLID_ANGLE_UNIT ( ) );
#58 = CARTESIAN_POINT ( 'NONE',  ( 3.209238430557093125E-14, 0.000000000000000000, 255.9193419885703520 ) ) ;
#59 = AXIS2_PLACEMENT_3D ( 'NONE', #73, #103, #27 ) ;
#60 = DIRECTION ( 'NONE',  ( -0.000000000000000000, -0.000000000000000000, -1.000000000000000000 ) ) ;
#61 = CALENDAR_DATE ( 2021, 25, 2 ) ;
#62 = CC_DESIGN_PERSON_AND_ORGANIZATION_ASSIGNMENT ( #94, #79, ( #78 ) ) ;
#63 = APPROVAL_DATE_TIME ( #197, #98 ) ;
#64 = MANIFOLD_SOLID_BREP ( 'Cut-Revolve1', #7 ) ;
#65 = PRODUCT ( '010-0110T6_N-BK7_PCV_window', '010-0110T6_N-BK7_PCV_window', '', ( #178 ) ) ;
#66 = APPROVAL_ROLE ( '' ) ;
#67 = ORIENTED_EDGE ( 'NONE', *, *, #165, .F. ) ;
#68 = AXIS2_PLACEMENT_3D ( 'NONE', #139, #141, #46 ) ;
#69 = CC_DESIGN_PERSON_AND_ORGANIZATION_ASSIGNMENT ( #164, #28, ( #44 ) ) ;
#70 = ORIENTED_EDGE ( 'NONE', *, *, #17, .T. ) ;
#71 = DIRECTION ( 'NONE',  ( -0.000000000000000000, -0.000000000000000000, -1.000000000000000000 ) ) ;
#72 = ORIENTED_EDGE ( 'NONE', *, *, #25, .T. ) ;
#73 = CARTESIAN_POINT ( 'NONE',  ( 3.209238430557093125E-14, 0.000000000000000000, 6.000000000000005329 ) ) ;
#74 =( NAMED_UNIT ( * ) PLANE_ANGLE_UNIT ( ) SI_UNIT ( $, .RADIAN. ) );
#75 = LINE ( 'NONE', #151, #129 ) ;
#76 = CIRCLE ( 'NONE', #35, 250.0000000000000000 ) ;
#77 = PERSON_AND_ORGANIZATION ( #118, #184 ) ;
#78 = PRODUCT_DEFINITION ( 'UNKNOWN', '', #44, #200 ) ;
#79 = PERSON_AND_ORGANIZATION_ROLE ( 'creator' ) ;
#80 = APPROVAL_STATUS ( 'not_yet_approved' ) ;
#81 = PRODUCT_DEFINITION_SHAPE ( 'NONE', 'NONE',  #78 ) ;
#82 = ORIENTED_EDGE ( 'NONE', *, *, #110, .F. ) ;
#83 = CIRCLE ( 'NONE', #153, 6.350000000001257305 ) ;
#84 = EDGE_LOOP ( 'NONE', ( #148, #23 ) ) ;
#85 = ADVANCED_FACE ( 'NONE', ( #24 ), #137, .F. ) ;
#86 = AXIS2_PLACEMENT_3D ( 'NONE', #146, #71, #161 ) ;
#87 = CARTESIAN_POINT ( 'NONE',  ( 3.209238430557093125E-14, 0.000000000000000000, 255.9193419885703520 ) ) ;
#88 = CARTESIAN_POINT ( 'NONE',  ( 6.350000000001289280, 7.776507174587272843E-16, 6.000000000000005329 ) ) ;
#89 = VERTEX_POINT ( 'NONE', #54 ) ;
#90 = FACE_OUTER_BOUND ( 'NONE', #130, .T. ) ;
#91 = LINE ( 'NONE', #26, #13 ) ;
#92 = EDGE_CURVE ( 'NONE', #3, #2, #193, .T. ) ;
#93 = PERSON_AND_ORGANIZATION ( #118, #184 ) ;
#94 = PERSON_AND_ORGANIZATION ( #118, #184 ) ;
#95 = DATE_TIME_ROLE ( 'classification_date' ) ;
#96 = ORIENTED_EDGE ( 'NONE', *, *, #92, .T. ) ;
#97 = APPROVAL_STATUS ( 'not_yet_approved' ) ;
#98 = APPROVAL ( #80, 'UNSPECIFIED' ) ;
#99 = ORIENTED_EDGE ( 'NONE', *, *, #147, .T. ) ;
#100 = DIRECTION ( 'NONE',  ( 0.000000000000000000, 0.000000000000000000, 1.000000000000000000 ) ) ;
#101 = DIRECTION ( 'NONE',  ( 0.000000000000000000, 0.000000000000000000, 1.000000000000000000 ) ) ;
#102 = PLANE ( 'NONE',  #36 ) ;
#103 = DIRECTION ( 'NONE',  ( -0.000000000000000000, -0.000000000000000000, -1.000000000000000000 ) ) ;
#104 = CARTESIAN_POINT ( 'NONE',  ( 0.000000000000000000, 0.000000000000000000, 6.000000000000000000 ) ) ;
#105 = CC_DESIGN_PERSON_AND_ORGANIZATION_ASSIGNMENT ( #11, #30, ( #65 ) ) ;
#106 = CARTESIAN_POINT ( 'NONE',  ( -6.349999999999999645, 0.000000000000000000, 0.000000000000000000 ) ) ;
#107 = DATE_TIME_ROLE ( 'creation_date' ) ;
#108 = COORDINATED_UNIVERSAL_TIME_OFFSET ( 2, 0, .AHEAD. ) ;
#109 = LOCAL_TIME ( 11, 22, 12.00000000000000000, #108 ) ;
#110 = EDGE_CURVE ( 'NONE', #3, #112, #91, .T. ) ;
#111 = ORIENTED_EDGE ( 'NONE', *, *, #110, .T. ) ;
#112 = VERTEX_POINT ( 'NONE', #43 ) ;
#113 = DIRECTION ( 'NONE',  ( 0.000000000000000000, -1.000000000000000000, -0.000000000000000000 ) ) ;
#114 = APPROVAL_PERSON_ORGANIZATION ( #93, #186, #14 ) ;
#115 = CARTESIAN_POINT ( 'NONE',  ( 3.209238430557093125E-14, 0.000000000000000000, 255.9193419885703520 ) ) ;
#116 = DIRECTION ( 'NONE',  ( 1.000000000000000000, 0.000000000000000000, -0.000000000000000000 ) ) ;
#117 = DIRECTION ( 'NONE',  ( 1.000000000000000000, 1.224646799147353207E-16, 0.000000000000000000 ) ) ;
#118 = PERSON ( 'UNSPECIFIED', 'UNSPECIFIED', 'UNSPECIFIED', ('UNSPECIFIED'), ('UNSPECIFIED'), ('UNSPECIFIED') ) ;
#119 = LOCAL_TIME ( 11, 22, 12.00000000000000000, #45 ) ;
#120 = CC_DESIGN_DATE_AND_TIME_ASSIGNMENT ( #1, #95, ( #20 ) ) ;
#121 = DIRECTION ( 'NONE',  ( 1.000000000000000000, 0.000000000000000000, 0.000000000000000000 ) ) ;
#122 = CIRCLE ( 'NONE', #166, 6.349999999999999645 ) ;
#123 = CALENDAR_DATE ( 2021, 25, 2 ) ;
#124 = PERSON_AND_ORGANIZATION ( #118, #184 ) ;
#125 = EDGE_CURVE ( 'NONE', #2, #132, #75, .T. ) ;
#126 = APPROVAL_PERSON_ORGANIZATION ( #31, #98, #194 ) ;
#127 = PERSON_AND_ORGANIZATION_ROLE ( 'classification_officer' ) ;
#128 = SHAPE_DEFINITION_REPRESENTATION ( #81, #196 ) ;
#129 = VECTOR ( 'NONE', #60, 1000.000000000000000 ) ;
#130 = EDGE_LOOP ( 'NONE', ( #188, #53, #185 ) ) ;
#131 = CC_DESIGN_DATE_AND_TIME_ASSIGNMENT ( #183, #107, ( #78 ) ) ;
#132 = VERTEX_POINT ( 'NONE', #106 ) ;
#133 = DIRECTION ( 'NONE',  ( 1.000000000000000000, 0.000000000000000000, 0.000000000000000000 ) ) ;
#134 = CIRCLE ( 'NONE', #142, 6.349999999999999645 ) ;
#135 = DIRECTION ( 'NONE',  ( -1.000000000000000000, 0.000000000000000000, 0.000000000000000000 ) ) ;
#136 = DIRECTION ( 'NONE',  ( 1.000000000000000000, 0.000000000000000000, 0.000000000000000000 ) ) ;
#137 = SPHERICAL_SURFACE ( 'NONE', #159, 250.0000000000000000 ) ;
#138 = LOCAL_TIME ( 11, 22, 12.00000000000000000, #156 ) ;
#139 = CARTESIAN_POINT ( 'NONE',  ( 0.000000000000000000, 0.000000000000000000, 0.000000000000000000 ) ) ;
#140 = AXIS2_PLACEMENT_3D ( 'NONE', #115, #21, #173 ) ;
#141 = DIRECTION ( 'NONE',  ( 0.000000000000000000, 0.000000000000000000, 1.000000000000000000 ) ) ;
#142 = AXIS2_PLACEMENT_3D ( 'NONE', #5, #100, #56 ) ;
#143 = COORDINATED_UNIVERSAL_TIME_OFFSET ( 2, 0, .AHEAD. ) ;
#144 = AXIS2_PLACEMENT_3D ( 'NONE', #104, #4, #135 ) ;
#145 = CARTESIAN_POINT ( 'NONE',  ( 0.000000000000000000, 0.000000000000000000, 0.000000000000000000 ) ) ;
#146 = CARTESIAN_POINT ( 'NONE',  ( 0.000000000000000000, 0.000000000000000000, 6.000000000000000000 ) ) ;
#147 = EDGE_CURVE ( 'NONE', #112, #132, #122, .T. ) ;
#148 = ORIENTED_EDGE ( 'NONE', *, *, #17, .F. ) ;
#149 =( LENGTH_UNIT ( ) NAMED_UNIT ( * ) SI_UNIT ( .MILLI., .METRE. ) );
#150 =( GEOMETRIC_REPRESENTATION_CONTEXT ( 3 ) GLOBAL_UNCERTAINTY_ASSIGNED_CONTEXT ( ( #12 ) ) GLOBAL_UNIT_ASSIGNED_CONTEXT ( ( #149, #74, #57 ) ) REPRESENTATION_CONTEXT ( 'NONE', 'WORKASPACE' ) );
#151 = CARTESIAN_POINT ( 'NONE',  ( -6.349999999999999645, 0.000000000000000000, 6.000000000000000000 ) ) ;
#152 = SECURITY_CLASSIFICATION_LEVEL ( 'unclassified' ) ;
#153 = AXIS2_PLACEMENT_3D ( 'NONE', #174, #42, #133 ) ;
#154 = APPLICATION_PROTOCOL_DEFINITION ( 'international standard', 'config_control_design', 1994, #163 ) ;
#155 = CIRCLE ( 'NONE', #140, 250.0000000000000000 ) ;
#156 = COORDINATED_UNIVERSAL_TIME_OFFSET ( 2, 0, .AHEAD. ) ;
#157 = CC_DESIGN_PERSON_AND_ORGANIZATION_ASSIGNMENT ( #77, #127, ( #20 ) ) ;
#158 = CALENDAR_DATE ( 2021, 25, 2 ) ;
#159 = AXIS2_PLACEMENT_3D ( 'NONE', #41, #9, #121 ) ;
#160 = EDGE_CURVE ( 'NONE', #2, #3, #83, .T. ) ;
#161 = DIRECTION ( 'NONE',  ( -1.000000000000000000, 0.000000000000000000, 0.000000000000000000 ) ) ;
#162 = CARTESIAN_POINT ( 'NONE',  ( 0.000000000000000000, 0.000000000000000000, 0.000000000000000000 ) ) ;
#163 = APPLICATION_CONTEXT ( 'configuration controlled 3d designs of mechanical parts and assemblies' ) ;
#164 = PERSON_AND_ORGANIZATION ( #118, #184 ) ;
#165 = EDGE_CURVE ( 'NONE', #2, #89, #76, .T. ) ;
#166 = AXIS2_PLACEMENT_3D ( 'NONE', #162, #101, #136 ) ;
#167 = APPROVAL_DATE_TIME ( #180, #186 ) ;
#168 = ORIENTED_EDGE ( 'NONE', *, *, #125, .T. ) ;
#169 = PRODUCT_RELATED_PRODUCT_CATEGORY ( 'detail', '', ( #65 ) ) ;
#170 = EDGE_LOOP ( 'NONE', ( #201, #111, #99, #187 ) ) ;
#171 = DIRECTION ( 'NONE',  ( 1.224646799147353207E-16, -1.000000000000000000, 0.000000000000000000 ) ) ;
#172 = LOCAL_TIME ( 11, 22, 12.00000000000000000, #143 ) ;
#173 = DIRECTION ( 'NONE',  ( 0.000000000000000000, 0.000000000000000000, 1.000000000000000000 ) ) ;
#174 = CARTESIAN_POINT ( 'NONE',  ( 3.209238430557093125E-14, 0.000000000000000000, 6.000000000000005329 ) ) ;
#175 = AXIS2_PLACEMENT_3D ( 'NONE', #87, #113, #6 ) ;
#176 = DIRECTION ( 'NONE',  ( -0.000000000000000000, -0.000000000000000000, -1.000000000000000000 ) ) ;
#177 = ADVANCED_FACE ( 'NONE', ( #90 ), #22, .F. ) ;
#178 = MECHANICAL_CONTEXT ( 'NONE', #50, 'mechanical' ) ;
#179 = CC_DESIGN_SECURITY_CLASSIFICATION ( #20, ( #44 ) ) ;
#180 = DATE_AND_TIME ( #123, #109 ) ;
#181 = APPLICATION_PROTOCOL_DEFINITION ( 'international standard', 'config_control_design', 1994, #50 ) ;
#182 = CALENDAR_DATE ( 2021, 25, 2 ) ;
#183 = DATE_AND_TIME ( #61, #119 ) ;
#184 = ORGANIZATION ( 'UNSPECIFIED', 'UNSPECIFIED', '' ) ;
#185 = ORIENTED_EDGE ( 'NONE', *, *, #25, .F. ) ;
#186 = APPROVAL ( #32, 'UNSPECIFIED' ) ;
#187 = ORIENTED_EDGE ( 'NONE', *, *, #125, .F. ) ;
#188 = ORIENTED_EDGE ( 'NONE', *, *, #160, .F. ) ;
#189 = CYLINDRICAL_SURFACE ( 'NONE', #86, 6.349999999999999645 ) ;
#190 = CC_DESIGN_APPROVAL ( #186, ( #78 ) ) ;
#191 = CYLINDRICAL_SURFACE ( 'NONE', #144, 6.349999999999999645 ) ;
#192 = DIRECTION ( 'NONE',  ( 0.000000000000000000, 0.000000000000000000, 1.000000000000000000 ) ) ;
#193 = CIRCLE ( 'NONE', #59, 6.350000000001257305 ) ;
#194 = APPROVAL_ROLE ( '' ) ;
#195 = APPROVAL_PERSON_ORGANIZATION ( #49, #10, #66 ) ;
#196 = ADVANCED_BREP_SHAPE_REPRESENTATION ( '010-0110T6_N-BK7_PCV_window', ( #64, #68 ), #150 ) ;
#197 = DATE_AND_TIME ( #15, #138 ) ;
#198 = DATE_AND_TIME ( #158, #172 ) ;
#199 = ADVANCED_FACE ( 'NONE', ( #8 ), #189, .T. ) ;
#200 = DESIGN_CONTEXT ( 'detailed design', #163, 'design' ) ;
#201 = ORIENTED_EDGE ( 'NONE', *, *, #160, .T. ) ;
ENDSEC;
END-ISO-10303-21;
