ISO-10303-21;
HEADER;
FILE_DESCRIPTION (( 'STEP AP203' ),
    '1' );
FILE_NAME ('010-0110E_N-BK7_PCV_window.STEP',
    '2021-02-25T08:19:29',
    ( '' ),
    ( '' ),
    'SwSTEP 2.0',
    'SolidWorks 2019',
    '' );
FILE_SCHEMA (( 'CONFIG_CONTROL_DESIGN' ));
ENDSEC;

DATA;
#1 = AXIS2_PLACEMENT_3D ( 'NONE', #12, #45, #87 ) ;
#2 = EDGE_CURVE ( 'NONE', #22, #53, #74, .T. ) ;
#3 = AXIS2_PLACEMENT_3D ( 'NONE', #98, #8, #96 ) ;
#4 = ORIENTED_EDGE ( 'NONE', *, *, #139, .F. ) ;
#5 = EDGE_LOOP ( 'NONE', ( #4, #195 ) ) ;
#6 = VERTEX_POINT ( 'NONE', #69 ) ;
#7 = AXIS2_PLACEMENT_3D ( 'NONE', #82, #142, #144 ) ;
#8 = DIRECTION ( 'NONE',  ( 0.000000000000000000, 0.000000000000000000, 1.000000000000000000 ) ) ;
#9 = CARTESIAN_POINT ( 'NONE',  ( 0.000000000000000000, 0.000000000000000000, 3.000000000000000000 ) ) ;
#10 = ADVANCED_FACE ( 'NONE', ( #126 ), #127, .F. ) ;
#11 = DIRECTION ( 'NONE',  ( -0.000000000000000000, -0.000000000000000000, -1.000000000000000000 ) ) ;
#12 = CARTESIAN_POINT ( 'NONE',  ( 3.209238430557093125E-14, 0.000000000000000000, 252.9193419885703520 ) ) ;
#13 = PERSON_AND_ORGANIZATION ( #20, #194 ) ;
#14 = APPROVAL ( #156, 'UNSPECIFIED' ) ;
#15 = CALENDAR_DATE ( 2021, 25, 2 ) ;
#16 = APPLICATION_CONTEXT ( 'configuration controlled 3d designs of mechanical parts and assemblies' ) ;
#17 = PERSON_AND_ORGANIZATION_ROLE ( 'design_owner' ) ;
#18 = APPROVAL ( #27, 'UNSPECIFIED' ) ;
#19 = ADVANCED_FACE ( 'NONE', ( #161 ), #124, .F. ) ;
#20 = PERSON ( 'UNSPECIFIED', 'UNSPECIFIED', 'UNSPECIFIED', ('UNSPECIFIED'), ('UNSPECIFIED'), ('UNSPECIFIED') ) ;
#21 = LOCAL_TIME ( 10, 19, 29.00000000000000000, #188 ) ;
#22 = VERTEX_POINT ( 'NONE', #25 ) ;
#23 = ORIENTED_EDGE ( 'NONE', *, *, #102, .T. ) ;
#24 = DESIGN_CONTEXT ( 'detailed design', #160, 'design' ) ;
#25 = CARTESIAN_POINT ( 'NONE',  ( 6.349999999999999645, 7.776507174585692163E-16, 0.000000000000000000 ) ) ;
#26 = DIRECTION ( 'NONE',  ( 1.000000000000000000, 0.000000000000000000, 0.000000000000000000 ) ) ;
#27 = APPROVAL_STATUS ( 'not_yet_approved' ) ;
#28 = ADVANCED_BREP_SHAPE_REPRESENTATION ( '010-0110E_N-BK7_PCV_window', ( #176, #138 ), #109 ) ;
#29 = DIRECTION ( 'NONE',  ( 0.000000000000000000, 0.000000000000000000, 1.000000000000000000 ) ) ;
#30 = PERSON_AND_ORGANIZATION ( #20, #194 ) ;
#31 = DIRECTION ( 'NONE',  ( 0.000000000000000000, 0.000000000000000000, 1.000000000000000000 ) ) ;
#32 = LOCAL_TIME ( 10, 19, 29.00000000000000000, #183 ) ;
#33 = DIRECTION ( 'NONE',  ( 0.000000000000000000, 1.000000000000000000, -0.000000000000000000 ) ) ;
#34 = PERSON_AND_ORGANIZATION_ROLE ( 'creator' ) ;
#35 = EDGE_CURVE ( 'NONE', #68, #174, #38, .T. ) ;
#36 = LOCAL_TIME ( 10, 19, 29.00000000000000000, #56 ) ;
#37 = CALENDAR_DATE ( 2021, 25, 2 ) ;
#38 = CIRCLE ( 'NONE', #172, 250.0000000000000000 ) ;
#39 = CC_DESIGN_DATE_AND_TIME_ASSIGNMENT ( #165, #46, ( #97 ) ) ;
#40 = DATE_TIME_ROLE ( 'classification_date' ) ;
#41 = CC_DESIGN_SECURITY_CLASSIFICATION ( #115, ( #159 ) ) ;
#42 = ORIENTED_EDGE ( 'NONE', *, *, #35, .F. ) ;
#43 = ORIENTED_EDGE ( 'NONE', *, *, #108, .F. ) ;
#44 = ORIENTED_EDGE ( 'NONE', *, *, #153, .T. ) ;
#45 = DIRECTION ( 'NONE',  ( 0.000000000000000000, -1.000000000000000000, -0.000000000000000000 ) ) ;
#46 = DATE_TIME_ROLE ( 'creation_date' ) ;
#47 = AXIS2_PLACEMENT_3D ( 'NONE', #48, #133, #26 ) ;
#48 = CARTESIAN_POINT ( 'NONE',  ( 3.209238430557093125E-14, 0.000000000000000000, 3.000000000000002665 ) ) ;
#49 = CALENDAR_DATE ( 2021, 25, 2 ) ;
#50 = APPLICATION_PROTOCOL_DEFINITION ( 'international standard', 'config_control_design', 1994, #16 ) ;
#51 = ADVANCED_FACE ( 'NONE', ( #90 ), #150, .F. ) ;
#52 = APPROVAL_STATUS ( 'not_yet_approved' ) ;
#53 = VERTEX_POINT ( 'NONE', #178 ) ;
#54 = DIRECTION ( 'NONE',  ( 0.000000000000000000, 0.000000000000000000, 1.000000000000000000 ) ) ;
#55 = DIRECTION ( 'NONE',  ( -1.000000000000000000, 0.000000000000000000, 0.000000000000000000 ) ) ;
#56 = COORDINATED_UNIVERSAL_TIME_OFFSET ( 2, 0, .AHEAD. ) ;
#57 = DIRECTION ( 'NONE',  ( -0.000000000000000000, -0.000000000000000000, -1.000000000000000000 ) ) ;
#58 = PERSON_AND_ORGANIZATION_ROLE ( 'design_supplier' ) ;
#59 = DIRECTION ( 'NONE',  ( 1.224646799147353207E-16, -1.000000000000000000, 0.000000000000000000 ) ) ;
#60 = MECHANICAL_CONTEXT ( 'NONE', #16, 'mechanical' ) ;
#61 = AXIS2_PLACEMENT_3D ( 'NONE', #197, #57, #119 ) ;
#62 = LINE ( 'NONE', #201, #186 ) ;
#63 = APPROVAL_DATE_TIME ( #64, #158 ) ;
#64 = DATE_AND_TIME ( #37, #21 ) ;
#65 = EDGE_LOOP ( 'NONE', ( #85, #177, #111 ) ) ;
#66 = CIRCLE ( 'NONE', #61, 6.350000000001257305 ) ;
#67 = ADVANCED_FACE ( 'NONE', ( #147 ), #100, .T. ) ;
#68 = VERTEX_POINT ( 'NONE', #117 ) ;
#69 = CARTESIAN_POINT ( 'NONE',  ( 6.350000000001289280, 7.776507174587272843E-16, 3.000000000000002665 ) ) ;
#70 = ORIENTED_EDGE ( 'NONE', *, *, #118, .F. ) ;
#71 = ORIENTED_EDGE ( 'NONE', *, *, #2, .T. ) ;
#72 = APPROVAL_PERSON_ORGANIZATION ( #94, #158, #140 ) ;
#73 = CYLINDRICAL_SURFACE ( 'NONE', #162, 6.349999999999999645 ) ;
#74 = CIRCLE ( 'NONE', #3, 6.349999999999999645 ) ;
#75 = CARTESIAN_POINT ( 'NONE',  ( -6.349999999999999645, 0.000000000000000000, 3.000000000000000000 ) ) ;
#76 = APPROVAL_DATE_TIME ( #89, #18 ) ;
#77 = DIRECTION ( 'NONE',  ( 1.000000000000000000, 0.000000000000000000, 0.000000000000000000 ) ) ;
#78 = CARTESIAN_POINT ( 'NONE',  ( 3.209238430557093125E-14, 0.000000000000000000, 252.9193419885703520 ) ) ;
#79 =( LENGTH_UNIT ( ) NAMED_UNIT ( * ) SI_UNIT ( .MILLI., .METRE. ) );
#80 = COORDINATED_UNIVERSAL_TIME_OFFSET ( 2, 0, .AHEAD. ) ;
#81 = PERSON_AND_ORGANIZATION ( #20, #194 ) ;
#82 = CARTESIAN_POINT ( 'NONE',  ( 3.209238430557093125E-14, 0.000000000000000000, 252.9193419885703520 ) ) ;
#83 = ADVANCED_FACE ( 'NONE', ( #163 ), #73, .T. ) ;
#84 = ORIENTED_EDGE ( 'NONE', *, *, #118, .T. ) ;
#85 = ORIENTED_EDGE ( 'NONE', *, *, #102, .F. ) ;
#86 = CIRCLE ( 'NONE', #47, 6.350000000001257305 ) ;
#87 = DIRECTION ( 'NONE',  ( 1.000000000000000000, 0.000000000000000000, 0.000000000000000000 ) ) ;
#88 = LINE ( 'NONE', #75, #137 ) ;
#89 = DATE_AND_TIME ( #164, #110 ) ;
#90 = FACE_OUTER_BOUND ( 'NONE', #65, .T. ) ;
#91 = APPROVAL_ROLE ( '' ) ;
#92 = APPLICATION_PROTOCOL_DEFINITION ( 'international standard', 'config_control_design', 1994, #160 ) ;
#93 = COORDINATED_UNIVERSAL_TIME_OFFSET ( 2, 0, .AHEAD. ) ;
#94 = PERSON_AND_ORGANIZATION ( #20, #194 ) ;
#95 = ORIENTED_EDGE ( 'NONE', *, *, #139, .T. ) ;
#96 = DIRECTION ( 'NONE',  ( 1.000000000000000000, 0.000000000000000000, 0.000000000000000000 ) ) ;
#97 = PRODUCT_DEFINITION ( 'UNKNOWN', '', #159, #24 ) ;
#98 = CARTESIAN_POINT ( 'NONE',  ( 0.000000000000000000, 0.000000000000000000, 0.000000000000000000 ) ) ;
#99 = CC_DESIGN_APPROVAL ( #18, ( #159 ) ) ;
#100 = CYLINDRICAL_SURFACE ( 'NONE', #123, 6.349999999999999645 ) ;
#101 = PERSON_AND_ORGANIZATION ( #20, #194 ) ;
#102 = EDGE_CURVE ( 'NONE', #68, #6, #86, .T. ) ;
#103 = CARTESIAN_POINT ( 'NONE',  ( 0.000000000000000000, 0.000000000000000000, 0.000000000000000000 ) ) ;
#104 = APPROVAL_DATE_TIME ( #182, #14 ) ;
#105 = CARTESIAN_POINT ( 'NONE',  ( 4.740046929491285001E-14, 0.000000000000000000, 2.919341988570356428 ) ) ;
#106 =( NAMED_UNIT ( * ) PLANE_ANGLE_UNIT ( ) SI_UNIT ( $, .RADIAN. ) );
#107 = CC_DESIGN_PERSON_AND_ORGANIZATION_ASSIGNMENT ( #13, #134, ( #115 ) ) ;
#108 = EDGE_CURVE ( 'NONE', #68, #53, #88, .T. ) ;
#109 =( GEOMETRIC_REPRESENTATION_CONTEXT ( 3 ) GLOBAL_UNCERTAINTY_ASSIGNED_CONTEXT ( ( #129 ) ) GLOBAL_UNIT_ASSIGNED_CONTEXT ( ( #79, #106, #169 ) ) REPRESENTATION_CONTEXT ( 'NONE', 'WORKASPACE' ) );
#110 = LOCAL_TIME ( 10, 19, 29.00000000000000000, #93 ) ;
#111 = ORIENTED_EDGE ( 'NONE', *, *, #187, .F. ) ;
#112 = CC_DESIGN_PERSON_AND_ORGANIZATION_ASSIGNMENT ( #30, #58, ( #159 ) ) ;
#113 = DIRECTION ( 'NONE',  ( 1.000000000000000000, 0.000000000000000000, -0.000000000000000000 ) ) ;
#114 = EDGE_LOOP ( 'NONE', ( #175, #84, #125, #95 ) ) ;
#115 = SECURITY_CLASSIFICATION ( '', '', #151 ) ;
#116 = EDGE_LOOP ( 'NONE', ( #23, #44, #71, #43 ) ) ;
#117 = CARTESIAN_POINT ( 'NONE',  ( -6.350000000001225331, 0.000000000000000000, 3.000000000000002665 ) ) ;
#118 = EDGE_CURVE ( 'NONE', #6, #68, #66, .T. ) ;
#119 = DIRECTION ( 'NONE',  ( 1.000000000000000000, 0.000000000000000000, 0.000000000000000000 ) ) ;
#120 = CC_DESIGN_APPROVAL ( #14, ( #97 ) ) ;
#121 = PERSON_AND_ORGANIZATION ( #20, #194 ) ;
#122 = CC_DESIGN_PERSON_AND_ORGANIZATION_ASSIGNMENT ( #121, #17, ( #152 ) ) ;
#123 = AXIS2_PLACEMENT_3D ( 'NONE', #9, #11, #181 ) ;
#124 = PLANE ( 'NONE',  #190 ) ;
#125 = ORIENTED_EDGE ( 'NONE', *, *, #108, .T. ) ;
#126 = FACE_OUTER_BOUND ( 'NONE', #146, .T. ) ;
#127 = SPHERICAL_SURFACE ( 'NONE', #7, 250.0000000000000000 ) ;
#128 = AXIS2_PLACEMENT_3D ( 'NONE', #78, #33, #168 ) ;
#129 = UNCERTAINTY_MEASURE_WITH_UNIT (LENGTH_MEASURE( 1.000000000000000082E-05 ), #79, 'distance_accuracy_value', 'NONE');
#130 = CARTESIAN_POINT ( 'NONE',  ( 0.000000000000000000, 0.000000000000000000, 3.000000000000000000 ) ) ;
#131 = DIRECTION ( 'NONE',  ( -0.000000000000000000, -0.000000000000000000, -1.000000000000000000 ) ) ;
#132 = PERSON_AND_ORGANIZATION ( #20, #194 ) ;
#133 = DIRECTION ( 'NONE',  ( -0.000000000000000000, -0.000000000000000000, -1.000000000000000000 ) ) ;
#134 = PERSON_AND_ORGANIZATION_ROLE ( 'classification_officer' ) ;
#135 = PRODUCT_DEFINITION_SHAPE ( 'NONE', 'NONE',  #97 ) ;
#136 = PERSON_AND_ORGANIZATION ( #20, #194 ) ;
#137 = VECTOR ( 'NONE', #131, 1000.000000000000000 ) ;
#138 = AXIS2_PLACEMENT_3D ( 'NONE', #184, #31, #157 ) ;
#139 = EDGE_CURVE ( 'NONE', #53, #22, #166, .T. ) ;
#140 = APPROVAL_ROLE ( '' ) ;
#141 = AXIS2_PLACEMENT_3D ( 'NONE', #103, #29, #77 ) ;
#142 = DIRECTION ( 'NONE',  ( 0.000000000000000000, -1.000000000000000000, -0.000000000000000000 ) ) ;
#143 = CC_DESIGN_APPROVAL ( #158, ( #115 ) ) ;
#144 = DIRECTION ( 'NONE',  ( 1.000000000000000000, 0.000000000000000000, 0.000000000000000000 ) ) ;
#145 = CLOSED_SHELL ( 'NONE', ( #51, #83, #67, #19, #10 ) ) ;
#146 = EDGE_LOOP ( 'NONE', ( #42, #70, #193 ) ) ;
#147 = FACE_OUTER_BOUND ( 'NONE', #114, .T. ) ;
#148 = CARTESIAN_POINT ( 'NONE',  ( 3.209238430557093125E-14, 0.000000000000000000, 252.9193419885703520 ) ) ;
#149 = CC_DESIGN_PERSON_AND_ORGANIZATION_ASSIGNMENT ( #132, #198, ( #159 ) ) ;
#150 = SPHERICAL_SURFACE ( 'NONE', #1, 250.0000000000000000 ) ;
#151 = SECURITY_CLASSIFICATION_LEVEL ( 'unclassified' ) ;
#152 = PRODUCT ( '010-0110E_N-BK7_PCV_window', '010-0110E_N-BK7_PCV_window', '', ( #60 ) ) ;
#153 = EDGE_CURVE ( 'NONE', #6, #22, #62, .T. ) ;
#154 = APPROVAL_PERSON_ORGANIZATION ( #81, #14, #91 ) ;
#155 = DIRECTION ( 'NONE',  ( -0.000000000000000000, -0.000000000000000000, -1.000000000000000000 ) ) ;
#156 = APPROVAL_STATUS ( 'not_yet_approved' ) ;
#157 = DIRECTION ( 'NONE',  ( 1.000000000000000000, 0.000000000000000000, 0.000000000000000000 ) ) ;
#158 = APPROVAL ( #52, 'UNSPECIFIED' ) ;
#159 = PRODUCT_DEFINITION_FORMATION_WITH_SPECIFIED_SOURCE ( 'ANY', '', #152, .NOT_KNOWN. ) ;
#160 = APPLICATION_CONTEXT ( 'configuration controlled 3d designs of mechanical parts and assemblies' ) ;
#161 = FACE_OUTER_BOUND ( 'NONE', #5, .T. ) ;
#162 = AXIS2_PLACEMENT_3D ( 'NONE', #130, #200, #55 ) ;
#163 = FACE_OUTER_BOUND ( 'NONE', #116, .T. ) ;
#164 = CALENDAR_DATE ( 2021, 25, 2 ) ;
#165 = DATE_AND_TIME ( #179, #173 ) ;
#166 = CIRCLE ( 'NONE', #141, 6.349999999999999645 ) ;
#167 = DATE_AND_TIME ( #49, #32 ) ;
#168 = DIRECTION ( 'NONE',  ( 0.000000000000000000, 0.000000000000000000, 1.000000000000000000 ) ) ;
#169 =( NAMED_UNIT ( * ) SI_UNIT ( $, .STERADIAN. ) SOLID_ANGLE_UNIT ( ) );
#170 = APPROVAL_PERSON_ORGANIZATION ( #101, #18, #185 ) ;
#171 = SHAPE_DEFINITION_REPRESENTATION ( #135, #28 ) ;
#172 = AXIS2_PLACEMENT_3D ( 'NONE', #148, #59, #196 ) ;
#173 = LOCAL_TIME ( 10, 19, 29.00000000000000000, #80 ) ;
#174 = VERTEX_POINT ( 'NONE', #105 ) ;
#175 = ORIENTED_EDGE ( 'NONE', *, *, #153, .F. ) ;
#176 = MANIFOLD_SOLID_BREP ( 'Cut-Revolve1', #145 ) ;
#177 = ORIENTED_EDGE ( 'NONE', *, *, #35, .T. ) ;
#178 = CARTESIAN_POINT ( 'NONE',  ( -6.349999999999999645, 0.000000000000000000, 0.000000000000000000 ) ) ;
#179 = CALENDAR_DATE ( 2021, 25, 2 ) ;
#180 = PRODUCT_RELATED_PRODUCT_CATEGORY ( 'detail', '', ( #152 ) ) ;
#181 = DIRECTION ( 'NONE',  ( -1.000000000000000000, 0.000000000000000000, 0.000000000000000000 ) ) ;
#182 = DATE_AND_TIME ( #15, #36 ) ;
#183 = COORDINATED_UNIVERSAL_TIME_OFFSET ( 2, 0, .AHEAD. ) ;
#184 = CARTESIAN_POINT ( 'NONE',  ( 0.000000000000000000, 0.000000000000000000, 0.000000000000000000 ) ) ;
#185 = APPROVAL_ROLE ( '' ) ;
#186 = VECTOR ( 'NONE', #155, 1000.000000000000000 ) ;
#187 = EDGE_CURVE ( 'NONE', #6, #174, #199, .T. ) ;
#188 = COORDINATED_UNIVERSAL_TIME_OFFSET ( 2, 0, .AHEAD. ) ;
#189 = CC_DESIGN_PERSON_AND_ORGANIZATION_ASSIGNMENT ( #136, #34, ( #97 ) ) ;
#190 = AXIS2_PLACEMENT_3D ( 'NONE', #191, #54, #113 ) ;
#191 = CARTESIAN_POINT ( 'NONE',  ( 0.000000000000000000, 0.000000000000000000, 0.000000000000000000 ) ) ;
#192 = CC_DESIGN_DATE_AND_TIME_ASSIGNMENT ( #167, #40, ( #115 ) ) ;
#193 = ORIENTED_EDGE ( 'NONE', *, *, #187, .T. ) ;
#194 = ORGANIZATION ( 'UNSPECIFIED', 'UNSPECIFIED', '' ) ;
#195 = ORIENTED_EDGE ( 'NONE', *, *, #2, .F. ) ;
#196 = DIRECTION ( 'NONE',  ( 1.000000000000000000, 1.224646799147353207E-16, 0.000000000000000000 ) ) ;
#197 = CARTESIAN_POINT ( 'NONE',  ( 3.209238430557093125E-14, 0.000000000000000000, 3.000000000000002665 ) ) ;
#198 = PERSON_AND_ORGANIZATION_ROLE ( 'creator' ) ;
#199 = CIRCLE ( 'NONE', #128, 250.0000000000000000 ) ;
#200 = DIRECTION ( 'NONE',  ( -0.000000000000000000, -0.000000000000000000, -1.000000000000000000 ) ) ;
#201 = CARTESIAN_POINT ( 'NONE',  ( 6.349999999999999645, 7.776507174585692163E-16, 3.000000000000000000 ) ) ;
ENDSEC;
END-ISO-10303-21;
