ISO-10303-21;
HEADER;
FILE_DESCRIPTION (( 'STEP AP203' ),
    '1' );
FILE_NAME ('010-0109E_N-BK7_PCV_window.STEP',
    '2021-02-25T08:21:26',
    ( '' ),
    ( '' ),
    'SwSTEP 2.0',
    'SolidWorks 2019',
    '' );
FILE_SCHEMA (( 'CONFIG_CONTROL_DESIGN' ));
ENDSEC;

DATA;
#1 = PERSON_AND_ORGANIZATION ( #5, #21 ) ;
#2 = DIRECTION ( 'NONE',  ( 0.000000000000000000, 0.000000000000000000, 1.000000000000000000 ) ) ;
#3 = CALENDAR_DATE ( 2021, 25, 2 ) ;
#4 = ORIENTED_EDGE ( 'NONE', *, *, #110, .T. ) ;
#5 = PERSON ( 'UNSPECIFIED', 'UNSPECIFIED', 'UNSPECIFIED', ('UNSPECIFIED'), ('UNSPECIFIED'), ('UNSPECIFIED') ) ;
#6 = AXIS2_PLACEMENT_3D ( 'NONE', #22, #83, #37 ) ;
#7 = PLANE ( 'NONE',  #154 ) ;
#8 = APPROVAL_PERSON_ORGANIZATION ( #196, #137, #35 ) ;
#9 = CARTESIAN_POINT ( 'NONE',  ( 0.000000000000000000, 0.000000000000000000, 0.000000000000000000 ) ) ;
#10 = CARTESIAN_POINT ( 'NONE',  ( 5.030698080332740574E-14, 0.000000000000000000, 402.9495936990060159 ) ) ;
#11 = COORDINATED_UNIVERSAL_TIME_OFFSET ( 2, 0, .AHEAD. ) ;
#12 = PRODUCT ( '010-0109E_N-BK7_PCV_window', '010-0109E_N-BK7_PCV_window', '', ( #77 ) ) ;
#13 = DIRECTION ( 'NONE',  ( 1.000000000000000000, 0.000000000000000000, 0.000000000000000000 ) ) ;
#14 = ORIENTED_EDGE ( 'NONE', *, *, #107, .T. ) ;
#15 = ADVANCED_FACE ( 'NONE', ( #198 ), #55, .F. ) ;
#16 = SECURITY_CLASSIFICATION_LEVEL ( 'unclassified' ) ;
#17 = EDGE_LOOP ( 'NONE', ( #187, #102, #199, #170 ) ) ;
#18 = DIRECTION ( 'NONE',  ( 1.000000000000000000, 0.000000000000000000, 0.000000000000000000 ) ) ;
#19 = AXIS2_PLACEMENT_3D ( 'NONE', #179, #42, #26 ) ;
#20 = PRODUCT_DEFINITION ( 'UNKNOWN', '', #194, #39 ) ;
#21 = ORGANIZATION ( 'UNSPECIFIED', 'UNSPECIFIED', '' ) ;
#22 = CARTESIAN_POINT ( 'NONE',  ( 0.000000000000000000, 0.000000000000000000, 3.000000000000000000 ) ) ;
#23 = CC_DESIGN_PERSON_AND_ORGANIZATION_ASSIGNMENT ( #28, #145, ( #20 ) ) ;
#24 = DIRECTION ( 'NONE',  ( 0.000000000000000000, 0.000000000000000000, 1.000000000000000000 ) ) ;
#25 = DIRECTION ( 'NONE',  ( -0.000000000000000000, -0.000000000000000000, -1.000000000000000000 ) ) ;
#26 = DIRECTION ( 'NONE',  ( 1.000000000000000000, 0.000000000000000000, 0.000000000000000000 ) ) ;
#27 = AXIS2_PLACEMENT_3D ( 'NONE', #10, #139, #98 ) ;
#28 = PERSON_AND_ORGANIZATION ( #5, #21 ) ;
#29 = ADVANCED_FACE ( 'NONE', ( #161 ), #177, .T. ) ;
#30 = PERSON_AND_ORGANIZATION_ROLE ( 'design_owner' ) ;
#31 = ORIENTED_EDGE ( 'NONE', *, *, #167, .F. ) ;
#32 = PERSON_AND_ORGANIZATION_ROLE ( 'creator' ) ;
#33 = DATE_AND_TIME ( #52, #87 ) ;
#34 = CIRCLE ( 'NONE', #82, 6.350000000003989342 ) ;
#35 = APPROVAL_ROLE ( '' ) ;
#36 = ORIENTED_EDGE ( 'NONE', *, *, #193, .F. ) ;
#37 = DIRECTION ( 'NONE',  ( -1.000000000000000000, 0.000000000000000000, 0.000000000000000000 ) ) ;
#38 = CALENDAR_DATE ( 2021, 25, 2 ) ;
#39 = DESIGN_CONTEXT ( 'detailed design', #157, 'design' ) ;
#40 = EDGE_LOOP ( 'NONE', ( #63, #174 ) ) ;
#41 = CARTESIAN_POINT ( 'NONE',  ( 5.030698080332740574E-14, 0.000000000000000000, 3.000000000000002665 ) ) ;
#42 = DIRECTION ( 'NONE',  ( 0.000000000000000000, 0.000000000000000000, 1.000000000000000000 ) ) ;
#43 = DIRECTION ( 'NONE',  ( 1.000000000000000000, 1.224646799147353207E-16, 0.000000000000000000 ) ) ;
#44 = DIRECTION ( 'NONE',  ( -0.000000000000000000, -0.000000000000000000, -1.000000000000000000 ) ) ;
#45 = VECTOR ( 'NONE', #72, 1000.000000000000000 ) ;
#46 = CARTESIAN_POINT ( 'NONE',  ( 6.350000000004039080, 7.776507174590639307E-16, 3.000000000000002665 ) ) ;
#47 = CC_DESIGN_PERSON_AND_ORGANIZATION_ASSIGNMENT ( #148, #62, ( #194 ) ) ;
#48 = DATE_AND_TIME ( #186, #68 ) ;
#49 = COORDINATED_UNIVERSAL_TIME_OFFSET ( 2, 0, .AHEAD. ) ;
#50 = CC_DESIGN_APPROVAL ( #81, ( #20 ) ) ;
#51 = DIRECTION ( 'NONE',  ( -0.000000000000000000, -0.000000000000000000, -1.000000000000000000 ) ) ;
#52 = CALENDAR_DATE ( 2021, 25, 2 ) ;
#53 = EDGE_CURVE ( 'NONE', #152, #135, #144, .T. ) ;
#54 = AXIS2_PLACEMENT_3D ( 'NONE', #146, #2, #18 ) ;
#55 = SPHERICAL_SURFACE ( 'NONE', #27, 400.0000000000000000 ) ;
#56 = CARTESIAN_POINT ( 'NONE',  ( -6.349999999999999645, 0.000000000000000000, 0.000000000000000000 ) ) ;
#57 = FACE_OUTER_BOUND ( 'NONE', #190, .T. ) ;
#58 = LINE ( 'NONE', #163, #45 ) ;
#59 = PERSON_AND_ORGANIZATION ( #5, #21 ) ;
#60 = APPROVAL_ROLE ( '' ) ;
#61 = CIRCLE ( 'NONE', #115, 6.350000000003989342 ) ;
#62 = PERSON_AND_ORGANIZATION_ROLE ( 'design_supplier' ) ;
#63 = ORIENTED_EDGE ( 'NONE', *, *, #162, .F. ) ;
#64 = APPROVAL_ROLE ( '' ) ;
#65 = LOCAL_TIME ( 10, 21, 26.00000000000000000, #189 ) ;
#66 = ADVANCED_FACE ( 'NONE', ( #85 ), #201, .F. ) ;
#67 = AXIS2_PLACEMENT_3D ( 'NONE', #200, #113, #181 ) ;
#68 = LOCAL_TIME ( 10, 21, 26.00000000000000000, #49 ) ;
#69 = CARTESIAN_POINT ( 'NONE',  ( 5.030698080332740574E-14, 0.000000000000000000, 402.9495936990060159 ) ) ;
#70 = CARTESIAN_POINT ( 'NONE',  ( -6.349999999999999645, 0.000000000000000000, 3.000000000000000000 ) ) ;
#71 = DIRECTION ( 'NONE',  ( 0.000000000000000000, -1.000000000000000000, -0.000000000000000000 ) ) ;
#72 = DIRECTION ( 'NONE',  ( -0.000000000000000000, -0.000000000000000000, -1.000000000000000000 ) ) ;
#73 = PRODUCT_DEFINITION_SHAPE ( 'NONE', 'NONE',  #20 ) ;
#74 = PERSON_AND_ORGANIZATION ( #5, #21 ) ;
#75 = CIRCLE ( 'NONE', #183, 400.0000000000000000 ) ;
#76 =( NAMED_UNIT ( * ) PLANE_ANGLE_UNIT ( ) SI_UNIT ( $, .RADIAN. ) );
#77 = MECHANICAL_CONTEXT ( 'NONE', #134, 'mechanical' ) ;
#78 = APPROVAL_STATUS ( 'not_yet_approved' ) ;
#79 = CC_DESIGN_APPROVAL ( #137, ( #142 ) ) ;
#80 = APPROVAL_DATE_TIME ( #33, #137 ) ;
#81 = APPROVAL ( #132, 'UNSPECIFIED' ) ;
#82 = AXIS2_PLACEMENT_3D ( 'NONE', #185, #44, #166 ) ;
#83 = DIRECTION ( 'NONE',  ( -0.000000000000000000, -0.000000000000000000, -1.000000000000000000 ) ) ;
#84 = DIRECTION ( 'NONE',  ( 1.000000000000000000, 0.000000000000000000, 0.000000000000000000 ) ) ;
#85 = FACE_OUTER_BOUND ( 'NONE', #97, .T. ) ;
#86 = CARTESIAN_POINT ( 'NONE',  ( 6.349999999999999645, 7.776507174585692163E-16, 0.000000000000000000 ) ) ;
#87 = LOCAL_TIME ( 10, 21, 26.00000000000000000, #106 ) ;
#88 = APPROVAL_DATE_TIME ( #130, #81 ) ;
#89 = EDGE_CURVE ( 'NONE', #192, #104, #108, .T. ) ;
#90 = DATE_TIME_ROLE ( 'creation_date' ) ;
#91 = DATE_AND_TIME ( #3, #159 ) ;
#92 = ADVANCED_FACE ( 'NONE', ( #125 ), #7, .F. ) ;
#93 = UNCERTAINTY_MEASURE_WITH_UNIT (LENGTH_MEASURE( 1.000000000000000082E-05 ), #169, 'distance_accuracy_value', 'NONE');
#94 = ORIENTED_EDGE ( 'NONE', *, *, #180, .F. ) ;
#95 = CARTESIAN_POINT ( 'NONE',  ( -6.350000000003939604, 0.000000000000000000, 3.000000000000002665 ) ) ;
#96 = CYLINDRICAL_SURFACE ( 'NONE', #6, 6.349999999999999645 ) ;
#97 = EDGE_LOOP ( 'NONE', ( #36, #168, #138 ) ) ;
#98 = DIRECTION ( 'NONE',  ( 1.000000000000000000, 0.000000000000000000, 0.000000000000000000 ) ) ;
#99 = AXIS2_PLACEMENT_3D ( 'NONE', #195, #25, #128 ) ;
#100 = ORIENTED_EDGE ( 'NONE', *, *, #193, .T. ) ;
#101 =( NAMED_UNIT ( * ) SI_UNIT ( $, .STERADIAN. ) SOLID_ANGLE_UNIT ( ) );
#102 = ORIENTED_EDGE ( 'NONE', *, *, #180, .T. ) ;
#103 = PRODUCT_RELATED_PRODUCT_CATEGORY ( 'detail', '', ( #12 ) ) ;
#104 = VERTEX_POINT ( 'NONE', #126 ) ;
#105 = DIRECTION ( 'NONE',  ( 0.000000000000000000, 1.000000000000000000, -0.000000000000000000 ) ) ;
#106 = COORDINATED_UNIVERSAL_TIME_OFFSET ( 2, 0, .AHEAD. ) ;
#107 = EDGE_CURVE ( 'NONE', #192, #175, #58, .T. ) ;
#108 = CIRCLE ( 'NONE', #120, 400.0000000000000568 ) ;
#109 = DIRECTION ( 'NONE',  ( 1.000000000000000000, 0.000000000000000000, -0.000000000000000000 ) ) ;
#110 = EDGE_CURVE ( 'NONE', #175, #135, #133, .T. ) ;
#111 = DIRECTION ( 'NONE',  ( 1.224646799147353207E-16, -1.000000000000000000, 0.000000000000000000 ) ) ;
#112 = APPROVAL_PERSON_ORGANIZATION ( #74, #184, #60 ) ;
#113 = DIRECTION ( 'NONE',  ( 0.000000000000000000, 0.000000000000000000, 1.000000000000000000 ) ) ;
#114 = COORDINATED_UNIVERSAL_TIME_OFFSET ( 2, 0, .AHEAD. ) ;
#115 = AXIS2_PLACEMENT_3D ( 'NONE', #41, #182, #13 ) ;
#116 = APPROVAL_DATE_TIME ( #48, #184 ) ;
#117 = PERSON_AND_ORGANIZATION ( #5, #21 ) ;
#118 = CALENDAR_DATE ( 2021, 25, 2 ) ;
#119 = PERSON_AND_ORGANIZATION_ROLE ( 'classification_officer' ) ;
#120 = AXIS2_PLACEMENT_3D ( 'NONE', #158, #105, #24 ) ;
#121 = CC_DESIGN_PERSON_AND_ORGANIZATION_ASSIGNMENT ( #59, #30, ( #12 ) ) ;
#122 = CLOSED_SHELL ( 'NONE', ( #66, #124, #29, #92, #15 ) ) ;
#123 = ORIENTED_EDGE ( 'NONE', *, *, #53, .F. ) ;
#124 = ADVANCED_FACE ( 'NONE', ( #57 ), #96, .T. ) ;
#125 = FACE_OUTER_BOUND ( 'NONE', #40, .T. ) ;
#126 = CARTESIAN_POINT ( 'NONE',  ( 7.479991678627446061E-14, 0.000000000000000000, 2.949593699005992331 ) ) ;
#127 = VECTOR ( 'NONE', #51, 1000.000000000000000 ) ;
#128 = DIRECTION ( 'NONE',  ( -1.000000000000000000, 0.000000000000000000, 0.000000000000000000 ) ) ;
#129 = LOCAL_TIME ( 10, 21, 26.00000000000000000, #114 ) ;
#130 = DATE_AND_TIME ( #118, #129 ) ;
#131 = CC_DESIGN_PERSON_AND_ORGANIZATION_ASSIGNMENT ( #1, #32, ( #194 ) ) ;
#132 = APPROVAL_STATUS ( 'not_yet_approved' ) ;
#133 = CIRCLE ( 'NONE', #67, 6.349999999999999645 ) ;
#134 = APPLICATION_CONTEXT ( 'configuration controlled 3d designs of mechanical parts and assemblies' ) ;
#135 = VERTEX_POINT ( 'NONE', #56 ) ;
#136 = CC_DESIGN_DATE_AND_TIME_ASSIGNMENT ( #91, #90, ( #20 ) ) ;
#137 = APPROVAL ( #78, 'UNSPECIFIED' ) ;
#138 = ORIENTED_EDGE ( 'NONE', *, *, #89, .F. ) ;
#139 = DIRECTION ( 'NONE',  ( 0.000000000000000000, -1.000000000000000000, -0.000000000000000000 ) ) ;
#140 = DIRECTION ( 'NONE',  ( 0.000000000000000000, 0.000000000000000000, 1.000000000000000000 ) ) ;
#141 = CIRCLE ( 'NONE', #19, 6.349999999999999645 ) ;
#142 = SECURITY_CLASSIFICATION ( '', '', #16 ) ;
#143 = CC_DESIGN_PERSON_AND_ORGANIZATION_ASSIGNMENT ( #117, #119, ( #142 ) ) ;
#144 = LINE ( 'NONE', #70, #127 ) ;
#145 = PERSON_AND_ORGANIZATION_ROLE ( 'creator' ) ;
#146 = CARTESIAN_POINT ( 'NONE',  ( 0.000000000000000000, 0.000000000000000000, 0.000000000000000000 ) ) ;
#147 = APPLICATION_PROTOCOL_DEFINITION ( 'international standard', 'config_control_design', 1994, #157 ) ;
#148 = PERSON_AND_ORGANIZATION ( #5, #21 ) ;
#149 = APPLICATION_PROTOCOL_DEFINITION ( 'international standard', 'config_control_design', 1994, #134 ) ;
#150 = MANIFOLD_SOLID_BREP ( 'Cut-Revolve1', #122 ) ;
#151 = CC_DESIGN_SECURITY_CLASSIFICATION ( #142, ( #194 ) ) ;
#152 = VERTEX_POINT ( 'NONE', #95 ) ;
#153 = CARTESIAN_POINT ( 'NONE',  ( 5.030698080332740574E-14, 0.000000000000000000, 402.9495936990060159 ) ) ;
#154 = AXIS2_PLACEMENT_3D ( 'NONE', #9, #140, #109 ) ;
#155 = DATE_AND_TIME ( #38, #65 ) ;
#156 = CC_DESIGN_DATE_AND_TIME_ASSIGNMENT ( #155, #191, ( #142 ) ) ;
#157 = APPLICATION_CONTEXT ( 'configuration controlled 3d designs of mechanical parts and assemblies' ) ;
#158 = CARTESIAN_POINT ( 'NONE',  ( 5.030698080332740574E-14, 0.000000000000000000, 402.9495936990060159 ) ) ;
#159 = LOCAL_TIME ( 10, 21, 26.00000000000000000, #11 ) ;
#160 = EDGE_LOOP ( 'NONE', ( #31, #94, #172 ) ) ;
#161 = FACE_OUTER_BOUND ( 'NONE', #17, .T. ) ;
#162 = EDGE_CURVE ( 'NONE', #135, #175, #141, .T. ) ;
#163 = CARTESIAN_POINT ( 'NONE',  ( 6.349999999999999645, 7.776507174585692163E-16, 3.000000000000000000 ) ) ;
#164 = CC_DESIGN_APPROVAL ( #184, ( #194 ) ) ;
#165 = PERSON_AND_ORGANIZATION ( #5, #21 ) ;
#166 = DIRECTION ( 'NONE',  ( 1.000000000000000000, 0.000000000000000000, 0.000000000000000000 ) ) ;
#167 = EDGE_CURVE ( 'NONE', #152, #104, #75, .T. ) ;
#168 = ORIENTED_EDGE ( 'NONE', *, *, #167, .T. ) ;
#169 =( LENGTH_UNIT ( ) NAMED_UNIT ( * ) SI_UNIT ( .MILLI., .METRE. ) );
#170 = ORIENTED_EDGE ( 'NONE', *, *, #162, .T. ) ;
#171 = APPROVAL_STATUS ( 'not_yet_approved' ) ;
#172 = ORIENTED_EDGE ( 'NONE', *, *, #89, .T. ) ;
#173 = ADVANCED_BREP_SHAPE_REPRESENTATION ( '010-0109E_N-BK7_PCV_window', ( #150, #54 ), #188 ) ;
#174 = ORIENTED_EDGE ( 'NONE', *, *, #110, .F. ) ;
#175 = VERTEX_POINT ( 'NONE', #86 ) ;
#176 = SHAPE_DEFINITION_REPRESENTATION ( #73, #173 ) ;
#177 = CYLINDRICAL_SURFACE ( 'NONE', #99, 6.349999999999999645 ) ;
#178 = APPROVAL_PERSON_ORGANIZATION ( #165, #81, #64 ) ;
#179 = CARTESIAN_POINT ( 'NONE',  ( 0.000000000000000000, 0.000000000000000000, 0.000000000000000000 ) ) ;
#180 = EDGE_CURVE ( 'NONE', #192, #152, #61, .T. ) ;
#181 = DIRECTION ( 'NONE',  ( 1.000000000000000000, 0.000000000000000000, 0.000000000000000000 ) ) ;
#182 = DIRECTION ( 'NONE',  ( -0.000000000000000000, -0.000000000000000000, -1.000000000000000000 ) ) ;
#183 = AXIS2_PLACEMENT_3D ( 'NONE', #153, #111, #43 ) ;
#184 = APPROVAL ( #171, 'UNSPECIFIED' ) ;
#185 = CARTESIAN_POINT ( 'NONE',  ( 5.030698080332740574E-14, 0.000000000000000000, 3.000000000000002665 ) ) ;
#186 = CALENDAR_DATE ( 2021, 25, 2 ) ;
#187 = ORIENTED_EDGE ( 'NONE', *, *, #107, .F. ) ;
#188 =( GEOMETRIC_REPRESENTATION_CONTEXT ( 3 ) GLOBAL_UNCERTAINTY_ASSIGNED_CONTEXT ( ( #93 ) ) GLOBAL_UNIT_ASSIGNED_CONTEXT ( ( #169, #76, #101 ) ) REPRESENTATION_CONTEXT ( 'NONE', 'WORKASPACE' ) );
#189 = COORDINATED_UNIVERSAL_TIME_OFFSET ( 2, 0, .AHEAD. ) ;
#190 = EDGE_LOOP ( 'NONE', ( #100, #14, #4, #123 ) ) ;
#191 = DATE_TIME_ROLE ( 'classification_date' ) ;
#192 = VERTEX_POINT ( 'NONE', #46 ) ;
#193 = EDGE_CURVE ( 'NONE', #152, #192, #34, .T. ) ;
#194 = PRODUCT_DEFINITION_FORMATION_WITH_SPECIFIED_SOURCE ( 'ANY', '', #12, .NOT_KNOWN. ) ;
#195 = CARTESIAN_POINT ( 'NONE',  ( 0.000000000000000000, 0.000000000000000000, 3.000000000000000000 ) ) ;
#196 = PERSON_AND_ORGANIZATION ( #5, #21 ) ;
#197 = AXIS2_PLACEMENT_3D ( 'NONE', #69, #71, #84 ) ;
#198 = FACE_OUTER_BOUND ( 'NONE', #160, .T. ) ;
#199 = ORIENTED_EDGE ( 'NONE', *, *, #53, .T. ) ;
#200 = CARTESIAN_POINT ( 'NONE',  ( 0.000000000000000000, 0.000000000000000000, 0.000000000000000000 ) ) ;
#201 = SPHERICAL_SURFACE ( 'NONE', #197, 400.0000000000000000 ) ;
ENDSEC;
END-ISO-10303-21;
