ISO-10303-21;
HEADER;
FILE_DESCRIPTION (( 'STEP AP203' ),
    '1' );
FILE_NAME ('010-0108T6_N-BK7_PCV_window.STEP',
    '2021-02-25T08:46:19',
    ( '' ),
    ( '' ),
    'SwSTEP 2.0',
    'SolidWorks 2019',
    '' );
FILE_SCHEMA (( 'CONFIG_CONTROL_DESIGN' ));
ENDSEC;

DATA;
#1 = DATE_AND_TIME ( #95, #9 ) ;
#2 = EDGE_CURVE ( 'NONE', #59, #57, #13, .T. ) ;
#3 = DIRECTION ( 'NONE',  ( 0.000000000000000000, 0.000000000000000000, 1.000000000000000000 ) ) ;
#4 = DIRECTION ( 'NONE',  ( -1.000000000000000000, 0.000000000000000000, 0.000000000000000000 ) ) ;
#5 = EDGE_LOOP ( 'NONE', ( #125, #138, #69 ) ) ;
#6 = MANIFOLD_SOLID_BREP ( 'Cut-Revolve1', #186 ) ;
#7 = CIRCLE ( 'NONE', #41, 6.349999999999999645 ) ;
#8 = EDGE_LOOP ( 'NONE', ( #92, #144 ) ) ;
#9 = LOCAL_TIME ( 10, 46, 19.00000000000000000, #96 ) ;
#10 = VERTEX_POINT ( 'NONE', #182 ) ;
#11 = CIRCLE ( 'NONE', #20, 6.349999999999999645 ) ;
#12 = PERSON_AND_ORGANIZATION_ROLE ( 'design_supplier' ) ;
#13 = LINE ( 'NONE', #197, #159 ) ;
#14 = DIRECTION ( 'NONE',  ( 0.000000000000000000, 0.000000000000000000, 1.000000000000000000 ) ) ;
#15 = CYLINDRICAL_SURFACE ( 'NONE', #124, 6.349999999999999645 ) ;
#16 = EDGE_CURVE ( 'NONE', #162, #59, #201, .T. ) ;
#17 = DIRECTION ( 'NONE',  ( -0.000000000000000000, -0.000000000000000000, -1.000000000000000000 ) ) ;
#18 = EDGE_CURVE ( 'NONE', #59, #162, #171, .T. ) ;
#19 = ORIENTED_EDGE ( 'NONE', *, *, #18, .T. ) ;
#20 = AXIS2_PLACEMENT_3D ( 'NONE', #54, #111, #91 ) ;
#21 = APPROVAL ( #149, 'UNSPECIFIED' ) ;
#22 = DIRECTION ( 'NONE',  ( 0.000000000000000000, -1.000000000000000000, -0.000000000000000000 ) ) ;
#23 = ORIENTED_EDGE ( 'NONE', *, *, #2, .F. ) ;
#24 = APPROVAL_DATE_TIME ( #1, #121 ) ;
#25 = CC_DESIGN_APPROVAL ( #21, ( #64 ) ) ;
#26 = AXIS2_PLACEMENT_3D ( 'NONE', #151, #172, #80 ) ;
#27 = ORIENTED_EDGE ( 'NONE', *, *, #120, .T. ) ;
#28 = CARTESIAN_POINT ( 'NONE',  ( 0.000000000000000000, 0.000000000000000000, 6.000000000000000000 ) ) ;
#29 = APPLICATION_CONTEXT ( 'configuration controlled 3d designs of mechanical parts and assemblies' ) ;
#30 = APPROVAL ( #89, 'UNSPECIFIED' ) ;
#31 = PRODUCT_DEFINITION_FORMATION_WITH_SPECIFIED_SOURCE ( 'ANY', '', #82, .NOT_KNOWN. ) ;
#32 = PERSON_AND_ORGANIZATION ( #167, #66 ) ;
#33 = COORDINATED_UNIVERSAL_TIME_OFFSET ( 2, 0, .AHEAD. ) ;
#34 = EDGE_CURVE ( 'NONE', #43, #57, #7, .T. ) ;
#35 = CC_DESIGN_DATE_AND_TIME_ASSIGNMENT ( #102, #150, ( #64 ) ) ;
#36 = DIRECTION ( 'NONE',  ( 1.000000000000000000, 0.000000000000000000, 0.000000000000000000 ) ) ;
#37 = APPROVAL_DATE_TIME ( #73, #30 ) ;
#38 = CARTESIAN_POINT ( 'NONE',  ( 6.349999999999644373, 7.776507174585475226E-16, 6.000000000000005329 ) ) ;
#39 = DIRECTION ( 'NONE',  ( 0.000000000000000000, -1.000000000000000000, -0.000000000000000000 ) ) ;
#40 = ORIENTED_EDGE ( 'NONE', *, *, #56, .F. ) ;
#41 = AXIS2_PLACEMENT_3D ( 'NONE', #108, #14, #152 ) ;
#42 = APPROVAL_STATUS ( 'not_yet_approved' ) ;
#43 = VERTEX_POINT ( 'NONE', #123 ) ;
#44 = UNCERTAINTY_MEASURE_WITH_UNIT (LENGTH_MEASURE( 1.000000000000000082E-05 ), #63, 'distance_accuracy_value', 'NONE');
#45 = CALENDAR_DATE ( 2021, 25, 2 ) ;
#46 = CC_DESIGN_APPROVAL ( #121, ( #156 ) ) ;
#47 = FACE_OUTER_BOUND ( 'NONE', #103, .T. ) ;
#48 = PERSON_AND_ORGANIZATION ( #167, #66 ) ;
#49 = PERSON_AND_ORGANIZATION ( #167, #66 ) ;
#50 = DIRECTION ( 'NONE',  ( 1.000000000000000000, 1.224646799147353207E-16, 0.000000000000000000 ) ) ;
#51 = DATE_TIME_ROLE ( 'creation_date' ) ;
#52 = DIRECTION ( 'NONE',  ( -0.000000000000000000, -0.000000000000000000, -1.000000000000000000 ) ) ;
#53 = CARTESIAN_POINT ( 'NONE',  ( -6.349999999999999645, 0.000000000000000000, 6.000000000000000000 ) ) ;
#54 = CARTESIAN_POINT ( 'NONE',  ( 0.000000000000000000, 0.000000000000000000, 0.000000000000000000 ) ) ;
#55 = CARTESIAN_POINT ( 'NONE',  ( 6.349999999999999645, 7.776507174585692163E-16, 0.000000000000000000 ) ) ;
#56 = EDGE_CURVE ( 'NONE', #162, #10, #117, .T. ) ;
#57 = VERTEX_POINT ( 'NONE', #55 ) ;
#58 = FACE_OUTER_BOUND ( 'NONE', #114, .T. ) ;
#59 = VERTEX_POINT ( 'NONE', #38 ) ;
#60 = PLANE ( 'NONE',  #98 ) ;
#61 = LOCAL_TIME ( 10, 46, 19.00000000000000000, #104 ) ;
#62 = APPLICATION_CONTEXT ( 'configuration controlled 3d designs of mechanical parts and assemblies' ) ;
#63 =( LENGTH_UNIT ( ) NAMED_UNIT ( * ) SI_UNIT ( .MILLI., .METRE. ) );
#64 = SECURITY_CLASSIFICATION ( '', '', #181 ) ;
#65 = CC_DESIGN_APPROVAL ( #30, ( #31 ) ) ;
#66 = ORGANIZATION ( 'UNSPECIFIED', 'UNSPECIFIED', '' ) ;
#67 = CC_DESIGN_PERSON_AND_ORGANIZATION_ASSIGNMENT ( #163, #164, ( #31 ) ) ;
#68 = DESIGN_CONTEXT ( 'detailed design', #29, 'design' ) ;
#69 = ORIENTED_EDGE ( 'NONE', *, *, #136, .F. ) ;
#70 = CARTESIAN_POINT ( 'NONE',  ( 0.000000000000000000, 0.000000000000000000, 0.000000000000000000 ) ) ;
#71 = PRODUCT_RELATED_PRODUCT_CATEGORY ( 'detail', '', ( #82 ) ) ;
#72 = APPROVAL_PERSON_ORGANIZATION ( #118, #21, #77 ) ;
#73 = DATE_AND_TIME ( #101, #61 ) ;
#74 = DATE_AND_TIME ( #88, #110 ) ;
#75 = AXIS2_PLACEMENT_3D ( 'NONE', #79, #52, #90 ) ;
#76 = EDGE_CURVE ( 'NONE', #162, #43, #199, .T. ) ;
#77 = APPROVAL_ROLE ( '' ) ;
#78 = PRODUCT_DEFINITION_SHAPE ( 'NONE', 'NONE',  #156 ) ;
#79 = CARTESIAN_POINT ( 'NONE',  ( 2.602085213965210642E-14, 0.000000000000000000, 6.000000000000005329 ) ) ;
#80 = DIRECTION ( 'NONE',  ( 0.000000000000000000, 0.000000000000000000, 1.000000000000000000 ) ) ;
#81 = CARTESIAN_POINT ( 'NONE',  ( 2.602085213965210642E-14, 0.000000000000000000, 205.8991683324370854 ) ) ;
#82 = PRODUCT ( '010-0108T6_N-BK7_PCV_window', '010-0108T6_N-BK7_PCV_window', '', ( #128 ) ) ;
#83 = CYLINDRICAL_SURFACE ( 'NONE', #198, 6.349999999999999645 ) ;
#84 = APPLICATION_PROTOCOL_DEFINITION ( 'international standard', 'config_control_design', 1994, #62 ) ;
#85 = ORIENTED_EDGE ( 'NONE', *, *, #18, .F. ) ;
#86 = CARTESIAN_POINT ( 'NONE',  ( 0.000000000000000000, 0.000000000000000000, 0.000000000000000000 ) ) ;
#87 = CC_DESIGN_PERSON_AND_ORGANIZATION_ASSIGNMENT ( #143, #115, ( #156 ) ) ;
#88 = CALENDAR_DATE ( 2021, 25, 2 ) ;
#89 = APPROVAL_STATUS ( 'not_yet_approved' ) ;
#90 = DIRECTION ( 'NONE',  ( 1.000000000000000000, 0.000000000000000000, 0.000000000000000000 ) ) ;
#91 = DIRECTION ( 'NONE',  ( 1.000000000000000000, 0.000000000000000000, 0.000000000000000000 ) ) ;
#92 = ORIENTED_EDGE ( 'NONE', *, *, #34, .F. ) ;
#93 = CC_DESIGN_DATE_AND_TIME_ASSIGNMENT ( #97, #51, ( #156 ) ) ;
#94 = AXIS2_PLACEMENT_3D ( 'NONE', #134, #165, #36 ) ;
#95 = CALENDAR_DATE ( 2021, 25, 2 ) ;
#96 = COORDINATED_UNIVERSAL_TIME_OFFSET ( 2, 0, .AHEAD. ) ;
#97 = DATE_AND_TIME ( #45, #184 ) ;
#98 = AXIS2_PLACEMENT_3D ( 'NONE', #86, #3, #127 ) ;
#99 = DIRECTION ( 'NONE',  ( 1.000000000000000000, 0.000000000000000000, 0.000000000000000000 ) ) ;
#100 = CC_DESIGN_PERSON_AND_ORGANIZATION_ASSIGNMENT ( #116, #190, ( #82 ) ) ;
#101 = CALENDAR_DATE ( 2021, 25, 2 ) ;
#102 = DATE_AND_TIME ( #193, #154 ) ;
#103 = EDGE_LOOP ( 'NONE', ( #158, #119, #27, #175 ) ) ;
#104 = COORDINATED_UNIVERSAL_TIME_OFFSET ( 2, 0, .AHEAD. ) ;
#105 = ADVANCED_BREP_SHAPE_REPRESENTATION ( '010-0108T6_N-BK7_PCV_window', ( #6, #178 ), #141 ) ;
#106 = FACE_OUTER_BOUND ( 'NONE', #5, .T. ) ;
#107 = AXIS2_PLACEMENT_3D ( 'NONE', #81, #185, #50 ) ;
#108 = CARTESIAN_POINT ( 'NONE',  ( 0.000000000000000000, 0.000000000000000000, 0.000000000000000000 ) ) ;
#109 = DIRECTION ( 'NONE',  ( -0.000000000000000000, -0.000000000000000000, -1.000000000000000000 ) ) ;
#110 = LOCAL_TIME ( 10, 46, 19.00000000000000000, #33 ) ;
#111 = DIRECTION ( 'NONE',  ( 0.000000000000000000, 0.000000000000000000, 1.000000000000000000 ) ) ;
#112 = FACE_OUTER_BOUND ( 'NONE', #8, .T. ) ;
#113 = DIRECTION ( 'NONE',  ( 0.000000000000000000, 0.000000000000000000, 1.000000000000000000 ) ) ;
#114 = EDGE_LOOP ( 'NONE', ( #40, #85, #153 ) ) ;
#115 = PERSON_AND_ORGANIZATION_ROLE ( 'creator' ) ;
#116 = PERSON_AND_ORGANIZATION ( #167, #66 ) ;
#117 = CIRCLE ( 'NONE', #107, 200.0000000000000000 ) ;
#118 = PERSON_AND_ORGANIZATION ( #167, #66 ) ;
#119 = ORIENTED_EDGE ( 'NONE', *, *, #2, .T. ) ;
#120 = EDGE_CURVE ( 'NONE', #57, #43, #11, .T. ) ;
#121 = APPROVAL ( #42, 'UNSPECIFIED' ) ;
#122 = CARTESIAN_POINT ( 'NONE',  ( -6.349999999999591971, 0.000000000000000000, 6.000000000000005329 ) ) ;
#123 = CARTESIAN_POINT ( 'NONE',  ( -6.349999999999999645, 0.000000000000000000, 0.000000000000000000 ) ) ;
#124 = AXIS2_PLACEMENT_3D ( 'NONE', #169, #17, #179 ) ;
#125 = ORIENTED_EDGE ( 'NONE', *, *, #16, .F. ) ;
#126 =( NAMED_UNIT ( * ) SI_UNIT ( $, .STERADIAN. ) SOLID_ANGLE_UNIT ( ) );
#127 = DIRECTION ( 'NONE',  ( 1.000000000000000000, 0.000000000000000000, -0.000000000000000000 ) ) ;
#128 = MECHANICAL_CONTEXT ( 'NONE', #62, 'mechanical' ) ;
#129 = CC_DESIGN_SECURITY_CLASSIFICATION ( #64, ( #31 ) ) ;
#130 = COORDINATED_UNIVERSAL_TIME_OFFSET ( 2, 0, .AHEAD. ) ;
#131 = APPROVAL_DATE_TIME ( #74, #21 ) ;
#132 = AXIS2_PLACEMENT_3D ( 'NONE', #200, #39, #166 ) ;
#133 = CC_DESIGN_PERSON_AND_ORGANIZATION_ASSIGNMENT ( #192, #12, ( #31 ) ) ;
#134 = CARTESIAN_POINT ( 'NONE',  ( 2.602085213965210642E-14, 0.000000000000000000, 6.000000000000005329 ) ) ;
#135 = DIRECTION ( 'NONE',  ( -0.000000000000000000, -0.000000000000000000, -1.000000000000000000 ) ) ;
#136 = EDGE_CURVE ( 'NONE', #59, #10, #196, .T. ) ;
#137 = SPHERICAL_SURFACE ( 'NONE', #132, 200.0000000000000000 ) ;
#138 = ORIENTED_EDGE ( 'NONE', *, *, #56, .T. ) ;
#139 = AXIS2_PLACEMENT_3D ( 'NONE', #146, #22, #99 ) ;
#140 = ORIENTED_EDGE ( 'NONE', *, *, #76, .T. ) ;
#141 =( GEOMETRIC_REPRESENTATION_CONTEXT ( 3 ) GLOBAL_UNCERTAINTY_ASSIGNED_CONTEXT ( ( #44 ) ) GLOBAL_UNIT_ASSIGNED_CONTEXT ( ( #63, #147, #126 ) ) REPRESENTATION_CONTEXT ( 'NONE', 'WORKASPACE' ) );
#142 = APPROVAL_PERSON_ORGANIZATION ( #49, #30, #161 ) ;
#143 = PERSON_AND_ORGANIZATION ( #167, #66 ) ;
#144 = ORIENTED_EDGE ( 'NONE', *, *, #120, .F. ) ;
#145 = ADVANCED_FACE ( 'NONE', ( #106 ), #137, .F. ) ;
#146 = CARTESIAN_POINT ( 'NONE',  ( 2.602085213965210642E-14, 0.000000000000000000, 205.8991683324370854 ) ) ;
#147 =( NAMED_UNIT ( * ) PLANE_ANGLE_UNIT ( ) SI_UNIT ( $, .RADIAN. ) );
#148 = PERSON_AND_ORGANIZATION_ROLE ( 'classification_officer' ) ;
#149 = APPROVAL_STATUS ( 'not_yet_approved' ) ;
#150 = DATE_TIME_ROLE ( 'classification_date' ) ;
#151 = CARTESIAN_POINT ( 'NONE',  ( 2.602085213965210642E-14, 0.000000000000000000, 205.8991683324370854 ) ) ;
#152 = DIRECTION ( 'NONE',  ( 1.000000000000000000, 0.000000000000000000, 0.000000000000000000 ) ) ;
#153 = ORIENTED_EDGE ( 'NONE', *, *, #136, .T. ) ;
#154 = LOCAL_TIME ( 10, 46, 19.00000000000000000, #130 ) ;
#155 = VECTOR ( 'NONE', #109, 1000.000000000000000 ) ;
#156 = PRODUCT_DEFINITION ( 'UNKNOWN', '', #31, #68 ) ;
#157 = APPROVAL_ROLE ( '' ) ;
#158 = ORIENTED_EDGE ( 'NONE', *, *, #16, .T. ) ;
#159 = VECTOR ( 'NONE', #135, 1000.000000000000000 ) ;
#160 = SPHERICAL_SURFACE ( 'NONE', #139, 200.0000000000000000 ) ;
#161 = APPROVAL_ROLE ( '' ) ;
#162 = VERTEX_POINT ( 'NONE', #122 ) ;
#163 = PERSON_AND_ORGANIZATION ( #167, #66 ) ;
#164 = PERSON_AND_ORGANIZATION_ROLE ( 'creator' ) ;
#165 = DIRECTION ( 'NONE',  ( -0.000000000000000000, -0.000000000000000000, -1.000000000000000000 ) ) ;
#166 = DIRECTION ( 'NONE',  ( 1.000000000000000000, 0.000000000000000000, 0.000000000000000000 ) ) ;
#167 = PERSON ( 'UNSPECIFIED', 'UNSPECIFIED', 'UNSPECIFIED', ('UNSPECIFIED'), ('UNSPECIFIED'), ('UNSPECIFIED') ) ;
#168 = FACE_OUTER_BOUND ( 'NONE', #187, .T. ) ;
#169 = CARTESIAN_POINT ( 'NONE',  ( 0.000000000000000000, 0.000000000000000000, 6.000000000000000000 ) ) ;
#170 = ADVANCED_FACE ( 'NONE', ( #168 ), #15, .T. ) ;
#171 = CIRCLE ( 'NONE', #75, 6.349999999999617728 ) ;
#172 = DIRECTION ( 'NONE',  ( 0.000000000000000000, 1.000000000000000000, -0.000000000000000000 ) ) ;
#173 = ADVANCED_FACE ( 'NONE', ( #58 ), #160, .F. ) ;
#174 = DIRECTION ( 'NONE',  ( -0.000000000000000000, -0.000000000000000000, -1.000000000000000000 ) ) ;
#175 = ORIENTED_EDGE ( 'NONE', *, *, #76, .F. ) ;
#176 = COORDINATED_UNIVERSAL_TIME_OFFSET ( 2, 0, .AHEAD. ) ;
#177 = ADVANCED_FACE ( 'NONE', ( #112 ), #60, .F. ) ;
#178 = AXIS2_PLACEMENT_3D ( 'NONE', #70, #113, #191 ) ;
#179 = DIRECTION ( 'NONE',  ( -1.000000000000000000, 0.000000000000000000, 0.000000000000000000 ) ) ;
#180 = APPLICATION_PROTOCOL_DEFINITION ( 'international standard', 'config_control_design', 1994, #29 ) ;
#181 = SECURITY_CLASSIFICATION_LEVEL ( 'unclassified' ) ;
#182 = CARTESIAN_POINT ( 'NONE',  ( 3.826732013112563385E-14, 0.000000000000000000, 5.899168332437060513 ) ) ;
#183 = CC_DESIGN_PERSON_AND_ORGANIZATION_ASSIGNMENT ( #32, #148, ( #64 ) ) ;
#184 = LOCAL_TIME ( 10, 46, 19.00000000000000000, #176 ) ;
#185 = DIRECTION ( 'NONE',  ( 1.224646799147353207E-16, -1.000000000000000000, 0.000000000000000000 ) ) ;
#186 = CLOSED_SHELL ( 'NONE', ( #145, #189, #170, #177, #173 ) ) ;
#187 = EDGE_LOOP ( 'NONE', ( #23, #19, #140, #188 ) ) ;
#188 = ORIENTED_EDGE ( 'NONE', *, *, #34, .T. ) ;
#189 = ADVANCED_FACE ( 'NONE', ( #47 ), #83, .T. ) ;
#190 = PERSON_AND_ORGANIZATION_ROLE ( 'design_owner' ) ;
#191 = DIRECTION ( 'NONE',  ( 1.000000000000000000, 0.000000000000000000, 0.000000000000000000 ) ) ;
#192 = PERSON_AND_ORGANIZATION ( #167, #66 ) ;
#193 = CALENDAR_DATE ( 2021, 25, 2 ) ;
#194 = APPROVAL_PERSON_ORGANIZATION ( #48, #121, #157 ) ;
#195 = SHAPE_DEFINITION_REPRESENTATION ( #78, #105 ) ;
#196 = CIRCLE ( 'NONE', #26, 200.0000000000000284 ) ;
#197 = CARTESIAN_POINT ( 'NONE',  ( 6.349999999999999645, 7.776507174585692163E-16, 6.000000000000000000 ) ) ;
#198 = AXIS2_PLACEMENT_3D ( 'NONE', #28, #174, #4 ) ;
#199 = LINE ( 'NONE', #53, #155 ) ;
#200 = CARTESIAN_POINT ( 'NONE',  ( 2.602085213965210642E-14, 0.000000000000000000, 205.8991683324370854 ) ) ;
#201 = CIRCLE ( 'NONE', #94, 6.349999999999617728 ) ;
ENDSEC;
END-ISO-10303-21;
