ISO-10303-21;
HEADER;
FILE_DESCRIPTION (( 'STEP AP203' ),
    '1' );
FILE_NAME ('010-0108E_N-BK7_PCV_window.STEP',
    '2021-02-25T08:19:00',
    ( '' ),
    ( '' ),
    'SwSTEP 2.0',
    'SolidWorks 2019',
    '' );
FILE_SCHEMA (( 'CONFIG_CONTROL_DESIGN' ));
ENDSEC;

DATA;
#1 = DIRECTION ( 'NONE',  ( 0.000000000000000000, 0.000000000000000000, 1.000000000000000000 ) ) ;
#2 = AXIS2_PLACEMENT_3D ( 'NONE', #72, #136, #193 ) ;
#3 = VERTEX_POINT ( 'NONE', #23 ) ;
#4 = ADVANCED_FACE ( 'NONE', ( #177 ), #9, .F. ) ;
#5 = ORIENTED_EDGE ( 'NONE', *, *, #186, .T. ) ;
#6 = ADVANCED_FACE ( 'NONE', ( #110 ), #40, .T. ) ;
#7 = DIRECTION ( 'NONE',  ( 1.000000000000000000, 0.000000000000000000, 0.000000000000000000 ) ) ;
#8 = APPLICATION_CONTEXT ( 'configuration controlled 3d designs of mechanical parts and assemblies' ) ;
#9 = SPHERICAL_SURFACE ( 'NONE', #120, 200.0000000000000000 ) ;
#10 = DIRECTION ( 'NONE',  ( 1.000000000000000000, 0.000000000000000000, 0.000000000000000000 ) ) ;
#11 = DIRECTION ( 'NONE',  ( 1.000000000000000000, 0.000000000000000000, -0.000000000000000000 ) ) ;
#12 = EDGE_CURVE ( 'NONE', #150, #37, #156, .T. ) ;
#13 = DATE_AND_TIME ( #175, #117 ) ;
#14 = DIRECTION ( 'NONE',  ( 1.000000000000000000, 0.000000000000000000, 0.000000000000000000 ) ) ;
#15 = AXIS2_PLACEMENT_3D ( 'NONE', #109, #121, #123 ) ;
#16 = ORIENTED_EDGE ( 'NONE', *, *, #169, .F. ) ;
#17 = ORIENTED_EDGE ( 'NONE', *, *, #186, .F. ) ;
#18 = ORIENTED_EDGE ( 'NONE', *, *, #169, .T. ) ;
#19 = DIRECTION ( 'NONE',  ( 0.000000000000000000, -1.000000000000000000, -0.000000000000000000 ) ) ;
#20 = CC_DESIGN_DATE_AND_TIME_ASSIGNMENT ( #133, #99, ( #88 ) ) ;
#21 = EDGE_LOOP ( 'NONE', ( #188, #122, #5, #163 ) ) ;
#22 = PERSON ( 'UNSPECIFIED', 'UNSPECIFIED', 'UNSPECIFIED', ('UNSPECIFIED'), ('UNSPECIFIED'), ('UNSPECIFIED') ) ;
#23 = CARTESIAN_POINT ( 'NONE',  ( 3.826732013112563385E-14, 0.000000000000000000, 2.899168332437057849 ) ) ;
#24 = CIRCLE ( 'NONE', #138, 6.349999999999999645 ) ;
#25 = CC_DESIGN_DATE_AND_TIME_ASSIGNMENT ( #159, #161, ( #38 ) ) ;
#26 = CARTESIAN_POINT ( 'NONE',  ( 2.602085213965210642E-14, 0.000000000000000000, 202.8991683324370570 ) ) ;
#27 = LINE ( 'NONE', #170, #59 ) ;
#28 = ADVANCED_FACE ( 'NONE', ( #196 ), #108, .F. ) ;
#29 = AXIS2_PLACEMENT_3D ( 'NONE', #58, #137, #194 ) ;
#30 = PERSON_AND_ORGANIZATION_ROLE ( 'creator' ) ;
#31 = PERSON_AND_ORGANIZATION_ROLE ( 'classification_officer' ) ;
#32 = CALENDAR_DATE ( 2021, 25, 2 ) ;
#33 = APPROVAL_DATE_TIME ( #13, #140 ) ;
#34 = APPROVAL ( #132, 'UNSPECIFIED' ) ;
#35 =( GEOMETRIC_REPRESENTATION_CONTEXT ( 3 ) GLOBAL_UNCERTAINTY_ASSIGNED_CONTEXT ( ( #63 ) ) GLOBAL_UNIT_ASSIGNED_CONTEXT ( ( #49, #181, #45 ) ) REPRESENTATION_CONTEXT ( 'NONE', 'WORKASPACE' ) );
#36 = ORIENTED_EDGE ( 'NONE', *, *, #54, .T. ) ;
#37 = VERTEX_POINT ( 'NONE', #62 ) ;
#38 = PRODUCT_DEFINITION ( 'UNKNOWN', '', #199, #144 ) ;
#39 = CARTESIAN_POINT ( 'NONE',  ( 6.349999999999999645, 7.776507174585692163E-16, 3.000000000000000000 ) ) ;
#40 = CYLINDRICAL_SURFACE ( 'NONE', #56, 6.349999999999999645 ) ;
#41 = FACE_OUTER_BOUND ( 'NONE', #153, .T. ) ;
#42 = DIRECTION ( 'NONE',  ( 1.000000000000000000, 0.000000000000000000, 0.000000000000000000 ) ) ;
#43 = CC_DESIGN_APPROVAL ( #61, ( #38 ) ) ;
#44 = CARTESIAN_POINT ( 'NONE',  ( 6.349999999999644373, 7.776507174585475226E-16, 3.000000000000002665 ) ) ;
#45 =( NAMED_UNIT ( * ) SI_UNIT ( $, .STERADIAN. ) SOLID_ANGLE_UNIT ( ) );
#46 = DIRECTION ( 'NONE',  ( -0.000000000000000000, -0.000000000000000000, -1.000000000000000000 ) ) ;
#47 = CIRCLE ( 'NONE', #2, 200.0000000000000284 ) ;
#48 = LOCAL_TIME ( 10, 19, 0.000000000000000000, #50 ) ;
#49 =( LENGTH_UNIT ( ) NAMED_UNIT ( * ) SI_UNIT ( .MILLI., .METRE. ) );
#50 = COORDINATED_UNIVERSAL_TIME_OFFSET ( 2, 0, .AHEAD. ) ;
#51 = APPROVAL_ROLE ( '' ) ;
#52 = COORDINATED_UNIVERSAL_TIME_OFFSET ( 2, 0, .AHEAD. ) ;
#53 = PERSON_AND_ORGANIZATION ( #22, #124 ) ;
#54 = EDGE_CURVE ( 'NONE', #189, #150, #126, .T. ) ;
#55 = VERTEX_POINT ( 'NONE', #154 ) ;
#56 = AXIS2_PLACEMENT_3D ( 'NONE', #192, #178, #57 ) ;
#57 = DIRECTION ( 'NONE',  ( -1.000000000000000000, 0.000000000000000000, 0.000000000000000000 ) ) ;
#58 = CARTESIAN_POINT ( 'NONE',  ( 2.602085213965210642E-14, 0.000000000000000000, 3.000000000000002665 ) ) ;
#59 = VECTOR ( 'NONE', #46, 1000.000000000000000 ) ;
#60 = DIRECTION ( 'NONE',  ( 1.000000000000000000, 0.000000000000000000, 0.000000000000000000 ) ) ;
#61 = APPROVAL ( #65, 'UNSPECIFIED' ) ;
#62 = CARTESIAN_POINT ( 'NONE',  ( -6.349999999999999645, 0.000000000000000000, 0.000000000000000000 ) ) ;
#63 = UNCERTAINTY_MEASURE_WITH_UNIT (LENGTH_MEASURE( 1.000000000000000082E-05 ), #49, 'distance_accuracy_value', 'NONE');
#64 = DIRECTION ( 'NONE',  ( 0.000000000000000000, 0.000000000000000000, 1.000000000000000000 ) ) ;
#65 = APPROVAL_STATUS ( 'not_yet_approved' ) ;
#66 = DATE_AND_TIME ( #32, #158 ) ;
#67 = DATE_AND_TIME ( #185, #176 ) ;
#68 = CC_DESIGN_SECURITY_CLASSIFICATION ( #88, ( #199 ) ) ;
#69 = AXIS2_PLACEMENT_3D ( 'NONE', #89, #74, #10 ) ;
#70 = CC_DESIGN_PERSON_AND_ORGANIZATION_ASSIGNMENT ( #184, #31, ( #88 ) ) ;
#71 = APPROVAL_PERSON_ORGANIZATION ( #160, #140, #51 ) ;
#72 = CARTESIAN_POINT ( 'NONE',  ( 2.602085213965210642E-14, 0.000000000000000000, 202.8991683324370570 ) ) ;
#73 = FACE_OUTER_BOUND ( 'NONE', #21, .T. ) ;
#74 = DIRECTION ( 'NONE',  ( 0.000000000000000000, 0.000000000000000000, 1.000000000000000000 ) ) ;
#75 = PRODUCT_DEFINITION_SHAPE ( 'NONE', 'NONE',  #38 ) ;
#76 = CARTESIAN_POINT ( 'NONE',  ( 0.000000000000000000, 0.000000000000000000, 0.000000000000000000 ) ) ;
#77 = CC_DESIGN_PERSON_AND_ORGANIZATION_ASSIGNMENT ( #200, #116, ( #199 ) ) ;
#78 = CIRCLE ( 'NONE', #95, 200.0000000000000000 ) ;
#79 = COORDINATED_UNIVERSAL_TIME_OFFSET ( 2, 0, .AHEAD. ) ;
#80 = PERSON_AND_ORGANIZATION ( #22, #124 ) ;
#81 = CALENDAR_DATE ( 2021, 25, 2 ) ;
#82 = CC_DESIGN_PERSON_AND_ORGANIZATION_ASSIGNMENT ( #83, #173, ( #115 ) ) ;
#83 = PERSON_AND_ORGANIZATION ( #22, #124 ) ;
#84 = ORIENTED_EDGE ( 'NONE', *, *, #135, .F. ) ;
#85 = SHAPE_DEFINITION_REPRESENTATION ( #75, #191 ) ;
#86 = ORIENTED_EDGE ( 'NONE', *, *, #90, .F. ) ;
#87 = DIRECTION ( 'NONE',  ( 1.000000000000000000, 1.224646799147353207E-16, 0.000000000000000000 ) ) ;
#88 = SECURITY_CLASSIFICATION ( '', '', #130 ) ;
#89 = CARTESIAN_POINT ( 'NONE',  ( 0.000000000000000000, 0.000000000000000000, 0.000000000000000000 ) ) ;
#90 = EDGE_CURVE ( 'NONE', #55, #189, #190, .T. ) ;
#91 = DIRECTION ( 'NONE',  ( -0.000000000000000000, -0.000000000000000000, -1.000000000000000000 ) ) ;
#92 = DIRECTION ( 'NONE',  ( 1.224646799147353207E-16, -1.000000000000000000, 0.000000000000000000 ) ) ;
#93 = AXIS2_PLACEMENT_3D ( 'NONE', #26, #94, #60 ) ;
#94 = DIRECTION ( 'NONE',  ( 0.000000000000000000, -1.000000000000000000, -0.000000000000000000 ) ) ;
#95 = AXIS2_PLACEMENT_3D ( 'NONE', #105, #92, #87 ) ;
#96 = PERSON_AND_ORGANIZATION_ROLE ( 'design_supplier' ) ;
#97 = APPROVAL_PERSON_ORGANIZATION ( #53, #61, #131 ) ;
#98 = CALENDAR_DATE ( 2021, 25, 2 ) ;
#99 = DATE_TIME_ROLE ( 'classification_date' ) ;
#100 = CARTESIAN_POINT ( 'NONE',  ( 0.000000000000000000, 0.000000000000000000, 0.000000000000000000 ) ) ;
#101 = ORIENTED_EDGE ( 'NONE', *, *, #90, .T. ) ;
#102 = APPROVAL_DATE_TIME ( #66, #34 ) ;
#103 = EDGE_LOOP ( 'NONE', ( #119, #104, #18 ) ) ;
#104 = ORIENTED_EDGE ( 'NONE', *, *, #174, .F. ) ;
#105 = CARTESIAN_POINT ( 'NONE',  ( 2.602085213965210642E-14, 0.000000000000000000, 202.8991683324370570 ) ) ;
#106 = LOCAL_TIME ( 10, 19, 0.000000000000000000, #143 ) ;
#107 = CC_DESIGN_PERSON_AND_ORGANIZATION_ASSIGNMENT ( #80, #30, ( #38 ) ) ;
#108 = SPHERICAL_SURFACE ( 'NONE', #93, 200.0000000000000000 ) ;
#109 = CARTESIAN_POINT ( 'NONE',  ( 0.000000000000000000, 0.000000000000000000, 3.000000000000000000 ) ) ;
#110 = FACE_OUTER_BOUND ( 'NONE', #165, .T. ) ;
#111 = APPROVAL_PERSON_ORGANIZATION ( #201, #34, #187 ) ;
#112 = CLOSED_SHELL ( 'NONE', ( #28, #6, #141, #179, #4 ) ) ;
#113 = AXIS2_PLACEMENT_3D ( 'NONE', #100, #1, #14 ) ;
#114 = PERSON_AND_ORGANIZATION ( #22, #124 ) ;
#115 = PRODUCT ( '010-0108E_N-BK7_PCV_window', '010-0108E_N-BK7_PCV_window', '', ( #172 ) ) ;
#116 = PERSON_AND_ORGANIZATION_ROLE ( 'creator' ) ;
#117 = LOCAL_TIME ( 10, 19, 0.000000000000000000, #148 ) ;
#118 = APPLICATION_PROTOCOL_DEFINITION ( 'international standard', 'config_control_design', 1994, #8 ) ;
#119 = ORIENTED_EDGE ( 'NONE', *, *, #155, .F. ) ;
#120 = AXIS2_PLACEMENT_3D ( 'NONE', #195, #19, #166 ) ;
#121 = DIRECTION ( 'NONE',  ( -0.000000000000000000, -0.000000000000000000, -1.000000000000000000 ) ) ;
#122 = ORIENTED_EDGE ( 'NONE', *, *, #174, .T. ) ;
#123 = DIRECTION ( 'NONE',  ( -1.000000000000000000, 0.000000000000000000, 0.000000000000000000 ) ) ;
#124 = ORGANIZATION ( 'UNSPECIFIED', 'UNSPECIFIED', '' ) ;
#125 = CARTESIAN_POINT ( 'NONE',  ( 0.000000000000000000, 0.000000000000000000, 0.000000000000000000 ) ) ;
#126 = LINE ( 'NONE', #39, #198 ) ;
#127 = CC_DESIGN_APPROVAL ( #34, ( #199 ) ) ;
#128 = APPLICATION_PROTOCOL_DEFINITION ( 'international standard', 'config_control_design', 1994, #157 ) ;
#129 = AXIS2_PLACEMENT_3D ( 'NONE', #139, #152, #7 ) ;
#130 = SECURITY_CLASSIFICATION_LEVEL ( 'unclassified' ) ;
#131 = APPROVAL_ROLE ( '' ) ;
#132 = APPROVAL_STATUS ( 'not_yet_approved' ) ;
#133 = DATE_AND_TIME ( #81, #48 ) ;
#134 = EDGE_LOOP ( 'NONE', ( #86, #164, #16 ) ) ;
#135 = EDGE_CURVE ( 'NONE', #37, #150, #24, .T. ) ;
#136 = DIRECTION ( 'NONE',  ( 0.000000000000000000, 1.000000000000000000, -0.000000000000000000 ) ) ;
#137 = DIRECTION ( 'NONE',  ( -0.000000000000000000, -0.000000000000000000, -1.000000000000000000 ) ) ;
#138 = AXIS2_PLACEMENT_3D ( 'NONE', #125, #151, #42 ) ;
#139 = CARTESIAN_POINT ( 'NONE',  ( 2.602085213965210642E-14, 0.000000000000000000, 3.000000000000002665 ) ) ;
#140 = APPROVAL ( #142, 'UNSPECIFIED' ) ;
#141 = ADVANCED_FACE ( 'NONE', ( #73 ), #180, .T. ) ;
#142 = APPROVAL_STATUS ( 'not_yet_approved' ) ;
#143 = COORDINATED_UNIVERSAL_TIME_OFFSET ( 2, 0, .AHEAD. ) ;
#144 = DESIGN_CONTEXT ( 'detailed design', #8, 'design' ) ;
#145 = APPROVAL_DATE_TIME ( #67, #61 ) ;
#146 = ORIENTED_EDGE ( 'NONE', *, *, #12, .T. ) ;
#147 = AXIS2_PLACEMENT_3D ( 'NONE', #76, #64, #11 ) ;
#148 = COORDINATED_UNIVERSAL_TIME_OFFSET ( 2, 0, .AHEAD. ) ;
#149 = PRODUCT_RELATED_PRODUCT_CATEGORY ( 'detail', '', ( #115 ) ) ;
#150 = VERTEX_POINT ( 'NONE', #167 ) ;
#151 = DIRECTION ( 'NONE',  ( 0.000000000000000000, 0.000000000000000000, 1.000000000000000000 ) ) ;
#152 = DIRECTION ( 'NONE',  ( -0.000000000000000000, -0.000000000000000000, -1.000000000000000000 ) ) ;
#153 = EDGE_LOOP ( 'NONE', ( #84, #168 ) ) ;
#154 = CARTESIAN_POINT ( 'NONE',  ( -6.349999999999591971, 0.000000000000000000, 3.000000000000002665 ) ) ;
#155 = EDGE_CURVE ( 'NONE', #55, #3, #78, .T. ) ;
#156 = CIRCLE ( 'NONE', #69, 6.349999999999999645 ) ;
#157 = APPLICATION_CONTEXT ( 'configuration controlled 3d designs of mechanical parts and assemblies' ) ;
#158 = LOCAL_TIME ( 10, 19, 0.000000000000000000, #52 ) ;
#159 = DATE_AND_TIME ( #98, #106 ) ;
#160 = PERSON_AND_ORGANIZATION ( #22, #124 ) ;
#161 = DATE_TIME_ROLE ( 'creation_date' ) ;
#162 = CC_DESIGN_APPROVAL ( #140, ( #88 ) ) ;
#163 = ORIENTED_EDGE ( 'NONE', *, *, #135, .T. ) ;
#164 = ORIENTED_EDGE ( 'NONE', *, *, #155, .T. ) ;
#165 = EDGE_LOOP ( 'NONE', ( #101, #36, #146, #17 ) ) ;
#166 = DIRECTION ( 'NONE',  ( 1.000000000000000000, 0.000000000000000000, 0.000000000000000000 ) ) ;
#167 = CARTESIAN_POINT ( 'NONE',  ( 6.349999999999999645, 7.776507174585692163E-16, 0.000000000000000000 ) ) ;
#168 = ORIENTED_EDGE ( 'NONE', *, *, #12, .F. ) ;
#169 = EDGE_CURVE ( 'NONE', #189, #3, #47, .T. ) ;
#170 = CARTESIAN_POINT ( 'NONE',  ( -6.349999999999999645, 0.000000000000000000, 3.000000000000000000 ) ) ;
#171 = PLANE ( 'NONE',  #147 ) ;
#172 = MECHANICAL_CONTEXT ( 'NONE', #157, 'mechanical' ) ;
#173 = PERSON_AND_ORGANIZATION_ROLE ( 'design_owner' ) ;
#174 = EDGE_CURVE ( 'NONE', #189, #55, #183, .T. ) ;
#175 = CALENDAR_DATE ( 2021, 25, 2 ) ;
#176 = LOCAL_TIME ( 10, 19, 0.000000000000000000, #79 ) ;
#177 = FACE_OUTER_BOUND ( 'NONE', #103, .T. ) ;
#178 = DIRECTION ( 'NONE',  ( -0.000000000000000000, -0.000000000000000000, -1.000000000000000000 ) ) ;
#179 = ADVANCED_FACE ( 'NONE', ( #41 ), #171, .F. ) ;
#180 = CYLINDRICAL_SURFACE ( 'NONE', #15, 6.349999999999999645 ) ;
#181 =( NAMED_UNIT ( * ) PLANE_ANGLE_UNIT ( ) SI_UNIT ( $, .RADIAN. ) );
#182 = MANIFOLD_SOLID_BREP ( 'Cut-Revolve1', #112 ) ;
#183 = CIRCLE ( 'NONE', #29, 6.349999999999617728 ) ;
#184 = PERSON_AND_ORGANIZATION ( #22, #124 ) ;
#185 = CALENDAR_DATE ( 2021, 25, 2 ) ;
#186 = EDGE_CURVE ( 'NONE', #55, #37, #27, .T. ) ;
#187 = APPROVAL_ROLE ( '' ) ;
#188 = ORIENTED_EDGE ( 'NONE', *, *, #54, .F. ) ;
#189 = VERTEX_POINT ( 'NONE', #44 ) ;
#190 = CIRCLE ( 'NONE', #129, 6.349999999999617728 ) ;
#191 = ADVANCED_BREP_SHAPE_REPRESENTATION ( '010-0108E_N-BK7_PCV_window', ( #182, #113 ), #35 ) ;
#192 = CARTESIAN_POINT ( 'NONE',  ( 0.000000000000000000, 0.000000000000000000, 3.000000000000000000 ) ) ;
#193 = DIRECTION ( 'NONE',  ( 0.000000000000000000, 0.000000000000000000, 1.000000000000000000 ) ) ;
#194 = DIRECTION ( 'NONE',  ( 1.000000000000000000, 0.000000000000000000, 0.000000000000000000 ) ) ;
#195 = CARTESIAN_POINT ( 'NONE',  ( 2.602085213965210642E-14, 0.000000000000000000, 202.8991683324370570 ) ) ;
#196 = FACE_OUTER_BOUND ( 'NONE', #134, .T. ) ;
#197 = CC_DESIGN_PERSON_AND_ORGANIZATION_ASSIGNMENT ( #114, #96, ( #199 ) ) ;
#198 = VECTOR ( 'NONE', #91, 1000.000000000000000 ) ;
#199 = PRODUCT_DEFINITION_FORMATION_WITH_SPECIFIED_SOURCE ( 'ANY', '', #115, .NOT_KNOWN. ) ;
#200 = PERSON_AND_ORGANIZATION ( #22, #124 ) ;
#201 = PERSON_AND_ORGANIZATION ( #22, #124 ) ;
ENDSEC;
END-ISO-10303-21;
