ISO-10303-21;
HEADER;
FILE_DESCRIPTION (( 'STEP AP203' ),
    '1' );
FILE_NAME ('010-0107T6_N-BK7_PCV_window.STEP',
    '2021-02-25T08:45:23',
    ( '' ),
    ( '' ),
    'SwSTEP 2.0',
    'SolidWorks 2019',
    '' );
FILE_SCHEMA (( 'CONFIG_CONTROL_DESIGN' ));
ENDSEC;

DATA;
#1 = SPHERICAL_SURFACE ( 'NONE', #58, 150.0000000000000000 ) ;
#2 = DIRECTION ( 'NONE',  ( 1.000000000000000000, 0.000000000000000000, 0.000000000000000000 ) ) ;
#3 = CC_DESIGN_SECURITY_CLASSIFICATION ( #129, ( #7 ) ) ;
#4 = PRODUCT_DEFINITION_SHAPE ( 'NONE', 'NONE',  #53 ) ;
#5 = FACE_OUTER_BOUND ( 'NONE', #186, .T. ) ;
#6 = EDGE_CURVE ( 'NONE', #160, #153, #142, .T. ) ;
#7 = PRODUCT_DEFINITION_FORMATION_WITH_SPECIFIED_SOURCE ( 'ANY', '', #37, .NOT_KNOWN. ) ;
#8 = DIRECTION ( 'NONE',  ( 0.000000000000000000, 0.000000000000000000, 1.000000000000000000 ) ) ;
#9 = CARTESIAN_POINT ( 'NONE',  ( 0.000000000000000000, 0.000000000000000000, 6.000000000000000000 ) ) ;
#10 = ORIENTED_EDGE ( 'NONE', *, *, #21, .F. ) ;
#11 = PERSON_AND_ORGANIZATION ( #152, #33 ) ;
#12 = PERSON_AND_ORGANIZATION_ROLE ( 'classification_officer' ) ;
#13 = VECTOR ( 'NONE', #137, 1000.000000000000000 ) ;
#14 = LOCAL_TIME ( 10, 45, 23.00000000000000000, #130 ) ;
#15 = DIRECTION ( 'NONE',  ( 1.000000000000000000, 0.000000000000000000, 0.000000000000000000 ) ) ;
#16 = APPROVAL_DATE_TIME ( #180, #157 ) ;
#17 = CALENDAR_DATE ( 2021, 25, 2 ) ;
#18 = DIRECTION ( 'NONE',  ( 0.000000000000000000, 0.000000000000000000, 1.000000000000000000 ) ) ;
#19 = ADVANCED_BREP_SHAPE_REPRESENTATION ( '010-0107T6_N-BK7_PCV_window', ( #81, #125 ), #72 ) ;
#20 =( NAMED_UNIT ( * ) SI_UNIT ( $, .STERADIAN. ) SOLID_ANGLE_UNIT ( ) );
#21 = EDGE_CURVE ( 'NONE', #153, #160, #27, .T. ) ;
#22 = DIRECTION ( 'NONE',  ( 1.224646799147353207E-16, -1.000000000000000000, 0.000000000000000000 ) ) ;
#23 = AXIS2_PLACEMENT_3D ( 'NONE', #182, #18, #185 ) ;
#24 = UNCERTAINTY_MEASURE_WITH_UNIT (LENGTH_MEASURE( 1.000000000000000082E-05 ), #91, 'distance_accuracy_value', 'NONE');
#25 = AXIS2_PLACEMENT_3D ( 'NONE', #9, #111, #175 ) ;
#26 = APPLICATION_CONTEXT ( 'configuration controlled 3d designs of mechanical parts and assemblies' ) ;
#27 = CIRCLE ( 'NONE', #78, 6.349999999999999645 ) ;
#28 = SHAPE_DEFINITION_REPRESENTATION ( #4, #19 ) ;
#29 = ORIENTED_EDGE ( 'NONE', *, *, #82, .T. ) ;
#30 = CC_DESIGN_PERSON_AND_ORGANIZATION_ASSIGNMENT ( #66, #68, ( #53 ) ) ;
#31 = CARTESIAN_POINT ( 'NONE',  ( 1.994931997373328159E-14, 0.000000000000000000, 155.8655313939799782 ) ) ;
#32 = DIRECTION ( 'NONE',  ( 1.000000000000000000, 0.000000000000000000, 0.000000000000000000 ) ) ;
#33 = ORGANIZATION ( 'UNSPECIFIED', 'UNSPECIFIED', '' ) ;
#34 = EDGE_CURVE ( 'NONE', #128, #65, #99, .T. ) ;
#35 = CARTESIAN_POINT ( 'NONE',  ( 1.994931997373328159E-14, 0.000000000000000000, 155.8655313939799782 ) ) ;
#36 = DIRECTION ( 'NONE',  ( 1.000000000000000000, 0.000000000000000000, -0.000000000000000000 ) ) ;
#37 = PRODUCT ( '010-0107T6_N-BK7_PCV_window', '010-0107T6_N-BK7_PCV_window', '', ( #41 ) ) ;
#38 = CARTESIAN_POINT ( 'NONE',  ( 0.000000000000000000, 0.000000000000000000, 6.000000000000000000 ) ) ;
#39 = CARTESIAN_POINT ( 'NONE',  ( 1.994931997373328159E-14, 0.000000000000000000, 155.8655313939799782 ) ) ;
#40 = DIRECTION ( 'NONE',  ( -0.000000000000000000, -0.000000000000000000, -1.000000000000000000 ) ) ;
#41 = MECHANICAL_CONTEXT ( 'NONE', #26, 'mechanical' ) ;
#42 = PERSON_AND_ORGANIZATION_ROLE ( 'design_owner' ) ;
#43 = DIRECTION ( 'NONE',  ( 0.000000000000000000, 0.000000000000000000, 1.000000000000000000 ) ) ;
#44 = DATE_AND_TIME ( #117, #151 ) ;
#45 = COORDINATED_UNIVERSAL_TIME_OFFSET ( 2, 0, .AHEAD. ) ;
#46 = FACE_OUTER_BOUND ( 'NONE', #102, .T. ) ;
#47 = DESIGN_CONTEXT ( 'detailed design', #116, 'design' ) ;
#48 = ADVANCED_FACE ( 'NONE', ( #169 ), #201, .F. ) ;
#49 = DIRECTION ( 'NONE',  ( 0.000000000000000000, 0.000000000000000000, 1.000000000000000000 ) ) ;
#50 = AXIS2_PLACEMENT_3D ( 'NONE', #109, #8, #36 ) ;
#51 = DIRECTION ( 'NONE',  ( 1.000000000000000000, 0.000000000000000000, 0.000000000000000000 ) ) ;
#52 = ADVANCED_FACE ( 'NONE', ( #46 ), #1, .F. ) ;
#53 = PRODUCT_DEFINITION ( 'UNKNOWN', '', #7, #47 ) ;
#54 = CALENDAR_DATE ( 2021, 25, 2 ) ;
#55 = VERTEX_POINT ( 'NONE', #154 ) ;
#56 = COORDINATED_UNIVERSAL_TIME_OFFSET ( 2, 0, .AHEAD. ) ;
#57 = DATE_TIME_ROLE ( 'creation_date' ) ;
#58 = AXIS2_PLACEMENT_3D ( 'NONE', #31, #166, #32 ) ;
#59 = APPROVAL_STATUS ( 'not_yet_approved' ) ;
#60 = DIRECTION ( 'NONE',  ( 0.000000000000000000, -1.000000000000000000, -0.000000000000000000 ) ) ;
#61 = ORIENTED_EDGE ( 'NONE', *, *, #110, .T. ) ;
#62 = CARTESIAN_POINT ( 'NONE',  ( -6.349999999999999645, 0.000000000000000000, 0.000000000000000000 ) ) ;
#63 = PRODUCT_RELATED_PRODUCT_CATEGORY ( 'detail', '', ( #37 ) ) ;
#64 = LINE ( 'NONE', #90, #159 ) ;
#65 = VERTEX_POINT ( 'NONE', #140 ) ;
#66 = PERSON_AND_ORGANIZATION ( #152, #33 ) ;
#67 =( NAMED_UNIT ( * ) PLANE_ANGLE_UNIT ( ) SI_UNIT ( $, .RADIAN. ) );
#68 = PERSON_AND_ORGANIZATION_ROLE ( 'creator' ) ;
#69 = ORIENTED_EDGE ( 'NONE', *, *, #34, .F. ) ;
#70 = DATE_AND_TIME ( #149, #14 ) ;
#71 = CIRCLE ( 'NONE', #136, 6.349999999999891287 ) ;
#72 =( GEOMETRIC_REPRESENTATION_CONTEXT ( 3 ) GLOBAL_UNCERTAINTY_ASSIGNED_CONTEXT ( ( #24 ) ) GLOBAL_UNIT_ASSIGNED_CONTEXT ( ( #91, #67, #20 ) ) REPRESENTATION_CONTEXT ( 'NONE', 'WORKASPACE' ) );
#73 = DIRECTION ( 'NONE',  ( 1.000000000000000000, 0.000000000000000000, 0.000000000000000000 ) ) ;
#74 = ORIENTED_EDGE ( 'NONE', *, *, #21, .T. ) ;
#75 = DIRECTION ( 'NONE',  ( 0.000000000000000000, 0.000000000000000000, 1.000000000000000000 ) ) ;
#76 = DIRECTION ( 'NONE',  ( 1.000000000000000000, 1.224646799147353207E-16, 0.000000000000000000 ) ) ;
#77 = FACE_OUTER_BOUND ( 'NONE', #94, .T. ) ;
#78 = AXIS2_PLACEMENT_3D ( 'NONE', #150, #75, #2 ) ;
#79 = CARTESIAN_POINT ( 'NONE',  ( -6.349999999999871747, 0.000000000000000000, 6.000000000000005329 ) ) ;
#80 = AXIS2_PLACEMENT_3D ( 'NONE', #38, #189, #172 ) ;
#81 = MANIFOLD_SOLID_BREP ( 'Cut-Revolve1', #184 ) ;
#82 = EDGE_CURVE ( 'NONE', #128, #153, #134, .T. ) ;
#83 = DIRECTION ( 'NONE',  ( 1.000000000000000000, 0.000000000000000000, 0.000000000000000000 ) ) ;
#84 = SECURITY_CLASSIFICATION_LEVEL ( 'unclassified' ) ;
#85 = AXIS2_PLACEMENT_3D ( 'NONE', #127, #40, #51 ) ;
#86 = ORIENTED_EDGE ( 'NONE', *, *, #164, .F. ) ;
#87 = COORDINATED_UNIVERSAL_TIME_OFFSET ( 2, 0, .AHEAD. ) ;
#88 = CC_DESIGN_PERSON_AND_ORGANIZATION_ASSIGNMENT ( #11, #42, ( #37 ) ) ;
#89 = AXIS2_PLACEMENT_3D ( 'NONE', #138, #22, #76 ) ;
#90 = CARTESIAN_POINT ( 'NONE',  ( 6.349999999999999645, 7.776507174585692163E-16, 6.000000000000000000 ) ) ;
#91 =( LENGTH_UNIT ( ) NAMED_UNIT ( * ) SI_UNIT ( .MILLI., .METRE. ) );
#92 = CYLINDRICAL_SURFACE ( 'NONE', #25, 6.349999999999999645 ) ;
#93 = APPROVAL_PERSON_ORGANIZATION ( #113, #115, #104 ) ;
#94 = EDGE_LOOP ( 'NONE', ( #148, #61, #29, #74 ) ) ;
#95 = CARTESIAN_POINT ( 'NONE',  ( 1.994931997373328159E-14, 0.000000000000000000, 6.000000000000005329 ) ) ;
#96 = EDGE_LOOP ( 'NONE', ( #196, #176, #121, #114 ) ) ;
#97 = PERSON_AND_ORGANIZATION_ROLE ( 'design_supplier' ) ;
#98 = APPLICATION_PROTOCOL_DEFINITION ( 'international standard', 'config_control_design', 1994, #26 ) ;
#99 = CIRCLE ( 'NONE', #89, 150.0000000000000000 ) ;
#100 = APPROVAL_DATE_TIME ( #118, #115 ) ;
#101 = CC_DESIGN_PERSON_AND_ORGANIZATION_ASSIGNMENT ( #146, #12, ( #129 ) ) ;
#102 = EDGE_LOOP ( 'NONE', ( #174, #132, #86 ) ) ;
#103 = APPROVAL_DATE_TIME ( #44, #190 ) ;
#104 = APPROVAL_ROLE ( '' ) ;
#105 = PERSON_AND_ORGANIZATION ( #152, #33 ) ;
#106 = LOCAL_TIME ( 10, 45, 23.00000000000000000, #195 ) ;
#107 = ADVANCED_FACE ( 'NONE', ( #77 ), #92, .T. ) ;
#108 = CYLINDRICAL_SURFACE ( 'NONE', #80, 6.349999999999999645 ) ;
#109 = CARTESIAN_POINT ( 'NONE',  ( 0.000000000000000000, 0.000000000000000000, 0.000000000000000000 ) ) ;
#110 = EDGE_CURVE ( 'NONE', #55, #128, #147, .T. ) ;
#111 = DIRECTION ( 'NONE',  ( -0.000000000000000000, -0.000000000000000000, -1.000000000000000000 ) ) ;
#112 = APPROVAL_ROLE ( '' ) ;
#113 = PERSON_AND_ORGANIZATION ( #152, #33 ) ;
#114 = ORIENTED_EDGE ( 'NONE', *, *, #82, .F. ) ;
#115 = APPROVAL ( #144, 'UNSPECIFIED' ) ;
#116 = APPLICATION_CONTEXT ( 'configuration controlled 3d designs of mechanical parts and assemblies' ) ;
#117 = CALENDAR_DATE ( 2021, 25, 2 ) ;
#118 = DATE_AND_TIME ( #17, #143 ) ;
#119 = EDGE_CURVE ( 'NONE', #128, #55, #71, .T. ) ;
#120 = ORIENTED_EDGE ( 'NONE', *, *, #110, .F. ) ;
#121 = ORIENTED_EDGE ( 'NONE', *, *, #6, .T. ) ;
#122 = DIRECTION ( 'NONE',  ( -0.000000000000000000, -0.000000000000000000, -1.000000000000000000 ) ) ;
#123 = APPROVAL_PERSON_ORGANIZATION ( #162, #157, #191 ) ;
#124 = PERSON_AND_ORGANIZATION_ROLE ( 'creator' ) ;
#125 = AXIS2_PLACEMENT_3D ( 'NONE', #178, #43, #15 ) ;
#126 = ADVANCED_FACE ( 'NONE', ( #5 ), #161, .F. ) ;
#127 = CARTESIAN_POINT ( 'NONE',  ( 1.994931997373328159E-14, 0.000000000000000000, 6.000000000000005329 ) ) ;
#128 = VERTEX_POINT ( 'NONE', #79 ) ;
#129 = SECURITY_CLASSIFICATION ( '', '', #84 ) ;
#130 = COORDINATED_UNIVERSAL_TIME_OFFSET ( 2, 0, .AHEAD. ) ;
#131 = PERSON_AND_ORGANIZATION ( #152, #33 ) ;
#132 = ORIENTED_EDGE ( 'NONE', *, *, #34, .T. ) ;
#133 = DATE_AND_TIME ( #179, #106 ) ;
#134 = LINE ( 'NONE', #197, #13 ) ;
#135 = APPROVAL_STATUS ( 'not_yet_approved' ) ;
#136 = AXIS2_PLACEMENT_3D ( 'NONE', #95, #170, #83 ) ;
#137 = DIRECTION ( 'NONE',  ( -0.000000000000000000, -0.000000000000000000, -1.000000000000000000 ) ) ;
#138 = CARTESIAN_POINT ( 'NONE',  ( 1.994931997373328159E-14, 0.000000000000000000, 155.8655313939799782 ) ) ;
#139 = APPROVAL_PERSON_ORGANIZATION ( #199, #190, #112 ) ;
#140 = CARTESIAN_POINT ( 'NONE',  ( 2.913417096733843032E-14, 0.000000000000000000, 5.865531393979994235 ) ) ;
#141 = CC_DESIGN_PERSON_AND_ORGANIZATION_ASSIGNMENT ( #105, #124, ( #7 ) ) ;
#142 = CIRCLE ( 'NONE', #23, 6.349999999999999645 ) ;
#143 = LOCAL_TIME ( 10, 45, 23.00000000000000000, #45 ) ;
#144 = APPROVAL_STATUS ( 'not_yet_approved' ) ;
#145 = EDGE_LOOP ( 'NONE', ( #69, #120, #193 ) ) ;
#146 = PERSON_AND_ORGANIZATION ( #152, #33 ) ;
#147 = CIRCLE ( 'NONE', #85, 6.349999999999891287 ) ;
#148 = ORIENTED_EDGE ( 'NONE', *, *, #156, .F. ) ;
#149 = CALENDAR_DATE ( 2021, 25, 2 ) ;
#150 = CARTESIAN_POINT ( 'NONE',  ( 0.000000000000000000, 0.000000000000000000, 0.000000000000000000 ) ) ;
#151 = LOCAL_TIME ( 10, 45, 23.00000000000000000, #56 ) ;
#152 = PERSON ( 'UNSPECIFIED', 'UNSPECIFIED', 'UNSPECIFIED', ('UNSPECIFIED'), ('UNSPECIFIED'), ('UNSPECIFIED') ) ;
#153 = VERTEX_POINT ( 'NONE', #62 ) ;
#154 = CARTESIAN_POINT ( 'NONE',  ( 6.349999999999910827, 7.776507174585638915E-16, 6.000000000000005329 ) ) ;
#155 = CARTESIAN_POINT ( 'NONE',  ( 6.349999999999999645, 7.776507174585692163E-16, 0.000000000000000000 ) ) ;
#156 = EDGE_CURVE ( 'NONE', #55, #160, #64, .T. ) ;
#157 = APPROVAL ( #135, 'UNSPECIFIED' ) ;
#158 = FACE_OUTER_BOUND ( 'NONE', #96, .T. ) ;
#159 = VECTOR ( 'NONE', #122, 1000.000000000000000 ) ;
#160 = VERTEX_POINT ( 'NONE', #155 ) ;
#161 = PLANE ( 'NONE',  #50 ) ;
#162 = PERSON_AND_ORGANIZATION ( #152, #33 ) ;
#163 = APPLICATION_PROTOCOL_DEFINITION ( 'international standard', 'config_control_design', 1994, #116 ) ;
#164 = EDGE_CURVE ( 'NONE', #55, #65, #192, .T. ) ;
#165 = CC_DESIGN_DATE_AND_TIME_ASSIGNMENT ( #70, #57, ( #53 ) ) ;
#166 = DIRECTION ( 'NONE',  ( 0.000000000000000000, -1.000000000000000000, -0.000000000000000000 ) ) ;
#167 = LOCAL_TIME ( 10, 45, 23.00000000000000000, #87 ) ;
#168 = ORIENTED_EDGE ( 'NONE', *, *, #6, .F. ) ;
#169 = FACE_OUTER_BOUND ( 'NONE', #145, .T. ) ;
#170 = DIRECTION ( 'NONE',  ( -0.000000000000000000, -0.000000000000000000, -1.000000000000000000 ) ) ;
#171 = CC_DESIGN_APPROVAL ( #115, ( #129 ) ) ;
#172 = DIRECTION ( 'NONE',  ( -1.000000000000000000, 0.000000000000000000, 0.000000000000000000 ) ) ;
#173 = CC_DESIGN_DATE_AND_TIME_ASSIGNMENT ( #133, #200, ( #129 ) ) ;
#174 = ORIENTED_EDGE ( 'NONE', *, *, #119, .F. ) ;
#175 = DIRECTION ( 'NONE',  ( -1.000000000000000000, 0.000000000000000000, 0.000000000000000000 ) ) ;
#176 = ORIENTED_EDGE ( 'NONE', *, *, #156, .T. ) ;
#177 = CC_DESIGN_APPROVAL ( #190, ( #7 ) ) ;
#178 = CARTESIAN_POINT ( 'NONE',  ( 0.000000000000000000, 0.000000000000000000, 0.000000000000000000 ) ) ;
#179 = CALENDAR_DATE ( 2021, 25, 2 ) ;
#180 = DATE_AND_TIME ( #54, #167 ) ;
#181 = CC_DESIGN_PERSON_AND_ORGANIZATION_ASSIGNMENT ( #131, #97, ( #7 ) ) ;
#182 = CARTESIAN_POINT ( 'NONE',  ( 0.000000000000000000, 0.000000000000000000, 0.000000000000000000 ) ) ;
#183 = AXIS2_PLACEMENT_3D ( 'NONE', #35, #60, #73 ) ;
#184 = CLOSED_SHELL ( 'NONE', ( #52, #194, #107, #126, #48 ) ) ;
#185 = DIRECTION ( 'NONE',  ( 1.000000000000000000, 0.000000000000000000, 0.000000000000000000 ) ) ;
#186 = EDGE_LOOP ( 'NONE', ( #10, #168 ) ) ;
#187 = DIRECTION ( 'NONE',  ( 0.000000000000000000, 1.000000000000000000, -0.000000000000000000 ) ) ;
#188 = AXIS2_PLACEMENT_3D ( 'NONE', #39, #187, #49 ) ;
#189 = DIRECTION ( 'NONE',  ( -0.000000000000000000, -0.000000000000000000, -1.000000000000000000 ) ) ;
#190 = APPROVAL ( #59, 'UNSPECIFIED' ) ;
#191 = APPROVAL_ROLE ( '' ) ;
#192 = CIRCLE ( 'NONE', #188, 150.0000000000000000 ) ;
#193 = ORIENTED_EDGE ( 'NONE', *, *, #164, .T. ) ;
#194 = ADVANCED_FACE ( 'NONE', ( #158 ), #108, .T. ) ;
#195 = COORDINATED_UNIVERSAL_TIME_OFFSET ( 2, 0, .AHEAD. ) ;
#196 = ORIENTED_EDGE ( 'NONE', *, *, #119, .T. ) ;
#197 = CARTESIAN_POINT ( 'NONE',  ( -6.349999999999999645, 0.000000000000000000, 6.000000000000000000 ) ) ;
#198 = CC_DESIGN_APPROVAL ( #157, ( #53 ) ) ;
#199 = PERSON_AND_ORGANIZATION ( #152, #33 ) ;
#200 = DATE_TIME_ROLE ( 'classification_date' ) ;
#201 = SPHERICAL_SURFACE ( 'NONE', #183, 150.0000000000000000 ) ;
ENDSEC;
END-ISO-10303-21;
