ISO-10303-21;
HEADER;
FILE_DESCRIPTION (( 'STEP AP203' ),
    '1' );
FILE_NAME ('010-0107E_N-BK7_PCV_window.STEP',
    '2021-02-25T08:16:52',
    ( '' ),
    ( '' ),
    'SwSTEP 2.0',
    'SolidWorks 2019',
    '' );
FILE_SCHEMA (( 'CONFIG_CONTROL_DESIGN' ));
ENDSEC;

DATA;
#1 = LINE ( 'NONE', #186, #100 ) ;
#2 = MANIFOLD_SOLID_BREP ( 'Cut-Revolve1', #126 ) ;
#3 = AXIS2_PLACEMENT_3D ( 'NONE', #96, #143, #6 ) ;
#4 = DIRECTION ( 'NONE',  ( 1.000000000000000000, 0.000000000000000000, 0.000000000000000000 ) ) ;
#5 = EDGE_LOOP ( 'NONE', ( #144, #46, #114, #118 ) ) ;
#6 = DIRECTION ( 'NONE',  ( 1.000000000000000000, 0.000000000000000000, 0.000000000000000000 ) ) ;
#7 = CYLINDRICAL_SURFACE ( 'NONE', #83, 6.349999999999999645 ) ;
#8 = ADVANCED_FACE ( 'NONE', ( #179 ), #149, .F. ) ;
#9 = MECHANICAL_CONTEXT ( 'NONE', #166, 'mechanical' ) ;
#10 = PERSON_AND_ORGANIZATION_ROLE ( 'creator' ) ;
#11 = APPROVAL_STATUS ( 'not_yet_approved' ) ;
#12 = PERSON_AND_ORGANIZATION_ROLE ( 'creator' ) ;
#13 = ADVANCED_FACE ( 'NONE', ( #113 ), #87, .T. ) ;
#14 = CIRCLE ( 'NONE', #125, 6.349999999999891287 ) ;
#15 = AXIS2_PLACEMENT_3D ( 'NONE', #65, #189, #29 ) ;
#16 = CARTESIAN_POINT ( 'NONE',  ( 1.994931997373328159E-14, 0.000000000000000000, 3.000000000000002665 ) ) ;
#17 = CARTESIAN_POINT ( 'NONE',  ( 1.994931997373328159E-14, 0.000000000000000000, 3.000000000000002665 ) ) ;
#18 = EDGE_LOOP ( 'NONE', ( #35, #177, #66 ) ) ;
#19 = AXIS2_PLACEMENT_3D ( 'NONE', #175, #82, #45 ) ;
#20 = DIRECTION ( 'NONE',  ( 1.000000000000000000, 0.000000000000000000, 0.000000000000000000 ) ) ;
#21 = ORIENTED_EDGE ( 'NONE', *, *, #43, .F. ) ;
#22 =( NAMED_UNIT ( * ) SI_UNIT ( $, .STERADIAN. ) SOLID_ANGLE_UNIT ( ) );
#23 = CALENDAR_DATE ( 2021, 25, 2 ) ;
#24 = CARTESIAN_POINT ( 'NONE',  ( 1.994931997373328159E-14, 0.000000000000000000, 152.8655313939799782 ) ) ;
#25 = CC_DESIGN_SECURITY_CLASSIFICATION ( #154, ( #42 ) ) ;
#26 = CC_DESIGN_PERSON_AND_ORGANIZATION_ASSIGNMENT ( #107, #140, ( #154 ) ) ;
#27 =( GEOMETRIC_REPRESENTATION_CONTEXT ( 3 ) GLOBAL_UNCERTAINTY_ASSIGNED_CONTEXT ( ( #155 ) ) GLOBAL_UNIT_ASSIGNED_CONTEXT ( ( #120, #104, #22 ) ) REPRESENTATION_CONTEXT ( 'NONE', 'WORKASPACE' ) );
#28 = CIRCLE ( 'NONE', #197, 6.349999999999891287 ) ;
#29 = DIRECTION ( 'NONE',  ( 1.000000000000000000, 0.000000000000000000, -0.000000000000000000 ) ) ;
#30 = DIRECTION ( 'NONE',  ( -0.000000000000000000, -0.000000000000000000, -1.000000000000000000 ) ) ;
#31 = VERTEX_POINT ( 'NONE', #190 ) ;
#32 = VERTEX_POINT ( 'NONE', #68 ) ;
#33 = CC_DESIGN_APPROVAL ( #88, ( #42 ) ) ;
#34 = CARTESIAN_POINT ( 'NONE',  ( 0.000000000000000000, 0.000000000000000000, 0.000000000000000000 ) ) ;
#35 = ORIENTED_EDGE ( 'NONE', *, *, #194, .F. ) ;
#36 = APPROVAL_ROLE ( '' ) ;
#37 = LINE ( 'NONE', #52, #173 ) ;
#38 = COORDINATED_UNIVERSAL_TIME_OFFSET ( 2, 0, .AHEAD. ) ;
#39 = PERSON_AND_ORGANIZATION ( #67, #196 ) ;
#40 = CC_DESIGN_PERSON_AND_ORGANIZATION_ASSIGNMENT ( #153, #10, ( #159 ) ) ;
#41 = COORDINATED_UNIVERSAL_TIME_OFFSET ( 2, 0, .AHEAD. ) ;
#42 = PRODUCT_DEFINITION_FORMATION_WITH_SPECIFIED_SOURCE ( 'ANY', '', #131, .NOT_KNOWN. ) ;
#43 = EDGE_CURVE ( 'NONE', #31, #32, #157, .T. ) ;
#44 = PRODUCT_RELATED_PRODUCT_CATEGORY ( 'detail', '', ( #131 ) ) ;
#45 = DIRECTION ( 'NONE',  ( -1.000000000000000000, 0.000000000000000000, 0.000000000000000000 ) ) ;
#46 = ORIENTED_EDGE ( 'NONE', *, *, #156, .T. ) ;
#47 = SPHERICAL_SURFACE ( 'NONE', #69, 150.0000000000000000 ) ;
#48 = ORIENTED_EDGE ( 'NONE', *, *, #115, .F. ) ;
#49 = CIRCLE ( 'NONE', #171, 150.0000000000000000 ) ;
#50 = DIRECTION ( 'NONE',  ( 1.224646799147353207E-16, -1.000000000000000000, 0.000000000000000000 ) ) ;
#51 = ADVANCED_FACE ( 'NONE', ( #132 ), #158, .F. ) ;
#52 = CARTESIAN_POINT ( 'NONE',  ( -6.349999999999999645, 0.000000000000000000, 3.000000000000000000 ) ) ;
#53 = PERSON_AND_ORGANIZATION_ROLE ( 'design_owner' ) ;
#54 = ORIENTED_EDGE ( 'NONE', *, *, #109, .F. ) ;
#55 = DIRECTION ( 'NONE',  ( -0.000000000000000000, -0.000000000000000000, -1.000000000000000000 ) ) ;
#56 = PERSON_AND_ORGANIZATION ( #67, #196 ) ;
#57 = CALENDAR_DATE ( 2021, 25, 2 ) ;
#58 = SHAPE_DEFINITION_REPRESENTATION ( #76, #163 ) ;
#59 = AXIS2_PLACEMENT_3D ( 'NONE', #24, #50, #70 ) ;
#60 = AXIS2_PLACEMENT_3D ( 'NONE', #128, #161, #85 ) ;
#61 = CARTESIAN_POINT ( 'NONE',  ( 6.349999999999910827, 7.776507174585638915E-16, 3.000000000000002665 ) ) ;
#62 = ADVANCED_FACE ( 'NONE', ( #110 ), #47, .F. ) ;
#63 = DIRECTION ( 'NONE',  ( 0.000000000000000000, -1.000000000000000000, -0.000000000000000000 ) ) ;
#64 = FACE_OUTER_BOUND ( 'NONE', #112, .T. ) ;
#65 = CARTESIAN_POINT ( 'NONE',  ( 0.000000000000000000, 0.000000000000000000, 0.000000000000000000 ) ) ;
#66 = ORIENTED_EDGE ( 'NONE', *, *, #115, .T. ) ;
#67 = PERSON ( 'UNSPECIFIED', 'UNSPECIFIED', 'UNSPECIFIED', ('UNSPECIFIED'), ('UNSPECIFIED'), ('UNSPECIFIED') ) ;
#68 = CARTESIAN_POINT ( 'NONE',  ( -6.349999999999999645, 0.000000000000000000, 0.000000000000000000 ) ) ;
#69 = AXIS2_PLACEMENT_3D ( 'NONE', #142, #63, #160 ) ;
#70 = DIRECTION ( 'NONE',  ( 1.000000000000000000, 1.224646799147353207E-16, 0.000000000000000000 ) ) ;
#71 = CALENDAR_DATE ( 2021, 25, 2 ) ;
#72 = ORIENTED_EDGE ( 'NONE', *, *, #74, .T. ) ;
#73 = COORDINATED_UNIVERSAL_TIME_OFFSET ( 2, 0, .AHEAD. ) ;
#74 = EDGE_CURVE ( 'NONE', #32, #31, #183, .T. ) ;
#75 = DATE_AND_TIME ( #138, #201 ) ;
#76 = PRODUCT_DEFINITION_SHAPE ( 'NONE', 'NONE',  #159 ) ;
#77 = SECURITY_CLASSIFICATION_LEVEL ( 'unclassified' ) ;
#78 = AXIS2_PLACEMENT_3D ( 'NONE', #116, #147, #20 ) ;
#79 = CC_DESIGN_PERSON_AND_ORGANIZATION_ASSIGNMENT ( #39, #53, ( #131 ) ) ;
#80 = CIRCLE ( 'NONE', #59, 150.0000000000000000 ) ;
#81 = DIRECTION ( 'NONE',  ( 1.000000000000000000, 0.000000000000000000, 0.000000000000000000 ) ) ;
#82 = DIRECTION ( 'NONE',  ( -0.000000000000000000, -0.000000000000000000, -1.000000000000000000 ) ) ;
#83 = AXIS2_PLACEMENT_3D ( 'NONE', #193, #55, #106 ) ;
#84 = ORIENTED_EDGE ( 'NONE', *, *, #168, .T. ) ;
#85 = DIRECTION ( 'NONE',  ( 1.000000000000000000, 0.000000000000000000, 0.000000000000000000 ) ) ;
#86 = EDGE_LOOP ( 'NONE', ( #54, #129, #48 ) ) ;
#87 = CYLINDRICAL_SURFACE ( 'NONE', #19, 6.349999999999999645 ) ;
#88 = APPROVAL ( #134, 'UNSPECIFIED' ) ;
#89 = DIRECTION ( 'NONE',  ( 0.000000000000000000, 0.000000000000000000, 1.000000000000000000 ) ) ;
#90 = DATE_AND_TIME ( #57, #176 ) ;
#91 = DATE_AND_TIME ( #137, #185 ) ;
#92 = PERSON_AND_ORGANIZATION ( #67, #196 ) ;
#93 = APPROVAL_PERSON_ORGANIZATION ( #180, #97, #94 ) ;
#94 = APPROVAL_ROLE ( '' ) ;
#95 = DESIGN_CONTEXT ( 'detailed design', #130, 'design' ) ;
#96 = CARTESIAN_POINT ( 'NONE',  ( 0.000000000000000000, 0.000000000000000000, 0.000000000000000000 ) ) ;
#97 = APPROVAL ( #11, 'UNSPECIFIED' ) ;
#98 = VERTEX_POINT ( 'NONE', #61 ) ;
#99 = DIRECTION ( 'NONE',  ( 0.000000000000000000, 0.000000000000000000, 1.000000000000000000 ) ) ;
#100 = VECTOR ( 'NONE', #174, 1000.000000000000000 ) ;
#101 = VERTEX_POINT ( 'NONE', #127 ) ;
#102 = EDGE_LOOP ( 'NONE', ( #164, #21 ) ) ;
#103 = DIRECTION ( 'NONE',  ( 1.000000000000000000, 0.000000000000000000, 0.000000000000000000 ) ) ;
#104 =( NAMED_UNIT ( * ) PLANE_ANGLE_UNIT ( ) SI_UNIT ( $, .RADIAN. ) );
#105 = CC_DESIGN_APPROVAL ( #135, ( #159 ) ) ;
#106 = DIRECTION ( 'NONE',  ( -1.000000000000000000, 0.000000000000000000, 0.000000000000000000 ) ) ;
#107 = PERSON_AND_ORGANIZATION ( #67, #196 ) ;
#108 = APPROVAL_DATE_TIME ( #75, #97 ) ;
#109 = EDGE_CURVE ( 'NONE', #191, #98, #14, .T. ) ;
#110 = FACE_OUTER_BOUND ( 'NONE', #86, .T. ) ;
#111 = AXIS2_PLACEMENT_3D ( 'NONE', #34, #89, #103 ) ;
#112 = EDGE_LOOP ( 'NONE', ( #119, #84, #146, #72 ) ) ;
#113 = FACE_OUTER_BOUND ( 'NONE', #5, .T. ) ;
#114 = ORIENTED_EDGE ( 'NONE', *, *, #43, .T. ) ;
#115 = EDGE_CURVE ( 'NONE', #98, #101, #49, .T. ) ;
#116 = CARTESIAN_POINT ( 'NONE',  ( 0.000000000000000000, 0.000000000000000000, 0.000000000000000000 ) ) ;
#117 = CC_DESIGN_APPROVAL ( #97, ( #154 ) ) ;
#118 = ORIENTED_EDGE ( 'NONE', *, *, #200, .F. ) ;
#119 = ORIENTED_EDGE ( 'NONE', *, *, #156, .F. ) ;
#120 =( LENGTH_UNIT ( ) NAMED_UNIT ( * ) SI_UNIT ( .MILLI., .METRE. ) );
#121 = PERSON_AND_ORGANIZATION ( #67, #196 ) ;
#122 = DATE_AND_TIME ( #23, #139 ) ;
#123 = CC_DESIGN_DATE_AND_TIME_ASSIGNMENT ( #122, #192, ( #159 ) ) ;
#124 = COORDINATED_UNIVERSAL_TIME_OFFSET ( 2, 0, .AHEAD. ) ;
#125 = AXIS2_PLACEMENT_3D ( 'NONE', #16, #30, #81 ) ;
#126 = CLOSED_SHELL ( 'NONE', ( #62, #13, #184, #8, #51 ) ) ;
#127 = CARTESIAN_POINT ( 'NONE',  ( 2.913417096733843032E-14, 0.000000000000000000, 2.865531393979992014 ) ) ;
#128 = CARTESIAN_POINT ( 'NONE',  ( 1.994931997373328159E-14, 0.000000000000000000, 152.8655313939799782 ) ) ;
#129 = ORIENTED_EDGE ( 'NONE', *, *, #194, .T. ) ;
#130 = APPLICATION_CONTEXT ( 'configuration controlled 3d designs of mechanical parts and assemblies' ) ;
#131 = PRODUCT ( '010-0107E_N-BK7_PCV_window', '010-0107E_N-BK7_PCV_window', '', ( #9 ) ) ;
#132 = FACE_OUTER_BOUND ( 'NONE', #18, .T. ) ;
#133 = DIRECTION ( 'NONE',  ( -0.000000000000000000, -0.000000000000000000, -1.000000000000000000 ) ) ;
#134 = APPROVAL_STATUS ( 'not_yet_approved' ) ;
#135 = APPROVAL ( #167, 'UNSPECIFIED' ) ;
#136 = CARTESIAN_POINT ( 'NONE',  ( -6.349999999999871747, 0.000000000000000000, 3.000000000000002665 ) ) ;
#137 = CALENDAR_DATE ( 2021, 25, 2 ) ;
#138 = CALENDAR_DATE ( 2021, 25, 2 ) ;
#139 = LOCAL_TIME ( 10, 16, 52.00000000000000000, #124 ) ;
#140 = PERSON_AND_ORGANIZATION_ROLE ( 'classification_officer' ) ;
#141 = CC_DESIGN_DATE_AND_TIME_ASSIGNMENT ( #90, #182, ( #154 ) ) ;
#142 = CARTESIAN_POINT ( 'NONE',  ( 1.994931997373328159E-14, 0.000000000000000000, 152.8655313939799782 ) ) ;
#143 = DIRECTION ( 'NONE',  ( 0.000000000000000000, 0.000000000000000000, 1.000000000000000000 ) ) ;
#144 = ORIENTED_EDGE ( 'NONE', *, *, #109, .T. ) ;
#145 = DIRECTION ( 'NONE',  ( -0.000000000000000000, -0.000000000000000000, -1.000000000000000000 ) ) ;
#146 = ORIENTED_EDGE ( 'NONE', *, *, #200, .T. ) ;
#147 = DIRECTION ( 'NONE',  ( 0.000000000000000000, 0.000000000000000000, 1.000000000000000000 ) ) ;
#148 = DIRECTION ( 'NONE',  ( 0.000000000000000000, 1.000000000000000000, -0.000000000000000000 ) ) ;
#149 = PLANE ( 'NONE',  #15 ) ;
#150 = APPLICATION_PROTOCOL_DEFINITION ( 'international standard', 'config_control_design', 1994, #166 ) ;
#151 = DATE_AND_TIME ( #71, #187 ) ;
#152 = APPROVAL_ROLE ( '' ) ;
#153 = PERSON_AND_ORGANIZATION ( #67, #196 ) ;
#154 = SECURITY_CLASSIFICATION ( '', '', #77 ) ;
#155 = UNCERTAINTY_MEASURE_WITH_UNIT (LENGTH_MEASURE( 1.000000000000000082E-05 ), #120, 'distance_accuracy_value', 'NONE');
#156 = EDGE_CURVE ( 'NONE', #98, #31, #1, .T. ) ;
#157 = CIRCLE ( 'NONE', #3, 6.349999999999999645 ) ;
#158 = SPHERICAL_SURFACE ( 'NONE', #60, 150.0000000000000000 ) ;
#159 = PRODUCT_DEFINITION ( 'UNKNOWN', '', #42, #95 ) ;
#160 = DIRECTION ( 'NONE',  ( 1.000000000000000000, 0.000000000000000000, 0.000000000000000000 ) ) ;
#161 = DIRECTION ( 'NONE',  ( 0.000000000000000000, -1.000000000000000000, -0.000000000000000000 ) ) ;
#162 = APPROVAL_PERSON_ORGANIZATION ( #56, #88, #152 ) ;
#163 = ADVANCED_BREP_SHAPE_REPRESENTATION ( '010-0107E_N-BK7_PCV_window', ( #2, #111 ), #27 ) ;
#164 = ORIENTED_EDGE ( 'NONE', *, *, #74, .F. ) ;
#165 = COORDINATED_UNIVERSAL_TIME_OFFSET ( 2, 0, .AHEAD. ) ;
#166 = APPLICATION_CONTEXT ( 'configuration controlled 3d designs of mechanical parts and assemblies' ) ;
#167 = APPROVAL_STATUS ( 'not_yet_approved' ) ;
#168 = EDGE_CURVE ( 'NONE', #98, #191, #28, .T. ) ;
#169 = APPROVAL_DATE_TIME ( #151, #135 ) ;
#170 = PERSON_AND_ORGANIZATION_ROLE ( 'design_supplier' ) ;
#171 = AXIS2_PLACEMENT_3D ( 'NONE', #188, #148, #99 ) ;
#172 = CC_DESIGN_PERSON_AND_ORGANIZATION_ASSIGNMENT ( #121, #170, ( #42 ) ) ;
#173 = VECTOR ( 'NONE', #133, 1000.000000000000000 ) ;
#174 = DIRECTION ( 'NONE',  ( -0.000000000000000000, -0.000000000000000000, -1.000000000000000000 ) ) ;
#175 = CARTESIAN_POINT ( 'NONE',  ( 0.000000000000000000, 0.000000000000000000, 3.000000000000000000 ) ) ;
#176 = LOCAL_TIME ( 10, 16, 52.00000000000000000, #41 ) ;
#177 = ORIENTED_EDGE ( 'NONE', *, *, #168, .F. ) ;
#178 = CC_DESIGN_PERSON_AND_ORGANIZATION_ASSIGNMENT ( #198, #12, ( #42 ) ) ;
#179 = FACE_OUTER_BOUND ( 'NONE', #102, .T. ) ;
#180 = PERSON_AND_ORGANIZATION ( #67, #196 ) ;
#181 = APPLICATION_PROTOCOL_DEFINITION ( 'international standard', 'config_control_design', 1994, #130 ) ;
#182 = DATE_TIME_ROLE ( 'classification_date' ) ;
#183 = CIRCLE ( 'NONE', #78, 6.349999999999999645 ) ;
#184 = ADVANCED_FACE ( 'NONE', ( #64 ), #7, .T. ) ;
#185 = LOCAL_TIME ( 10, 16, 52.00000000000000000, #73 ) ;
#186 = CARTESIAN_POINT ( 'NONE',  ( 6.349999999999999645, 7.776507174585692163E-16, 3.000000000000000000 ) ) ;
#187 = LOCAL_TIME ( 10, 16, 52.00000000000000000, #165 ) ;
#188 = CARTESIAN_POINT ( 'NONE',  ( 1.994931997373328159E-14, 0.000000000000000000, 152.8655313939799782 ) ) ;
#189 = DIRECTION ( 'NONE',  ( 0.000000000000000000, 0.000000000000000000, 1.000000000000000000 ) ) ;
#190 = CARTESIAN_POINT ( 'NONE',  ( 6.349999999999999645, 7.776507174585692163E-16, 0.000000000000000000 ) ) ;
#191 = VERTEX_POINT ( 'NONE', #136 ) ;
#192 = DATE_TIME_ROLE ( 'creation_date' ) ;
#193 = CARTESIAN_POINT ( 'NONE',  ( 0.000000000000000000, 0.000000000000000000, 3.000000000000000000 ) ) ;
#194 = EDGE_CURVE ( 'NONE', #191, #101, #80, .T. ) ;
#195 = APPROVAL_DATE_TIME ( #91, #88 ) ;
#196 = ORGANIZATION ( 'UNSPECIFIED', 'UNSPECIFIED', '' ) ;
#197 = AXIS2_PLACEMENT_3D ( 'NONE', #17, #145, #4 ) ;
#198 = PERSON_AND_ORGANIZATION ( #67, #196 ) ;
#199 = APPROVAL_PERSON_ORGANIZATION ( #92, #135, #36 ) ;
#200 = EDGE_CURVE ( 'NONE', #191, #32, #37, .T. ) ;
#201 = LOCAL_TIME ( 10, 16, 52.00000000000000000, #38 ) ;
ENDSEC;
END-ISO-10303-21;
