ISO-10303-21;
HEADER;
FILE_DESCRIPTION (( 'STEP AP203' ),
    '1' );
FILE_NAME ('010-0105T6_N-BK7_PCV_window.STEP',
    '2021-02-25T08:44:14',
    ( '' ),
    ( '' ),
    'SwSTEP 2.0',
    'SolidWorks 2019',
    '' );
FILE_SCHEMA (( 'CONFIG_CONTROL_DESIGN' ));
ENDSEC;

DATA;
#1 = FACE_OUTER_BOUND ( 'NONE', #134, .T. ) ;
#2 = EDGE_CURVE ( 'NONE', #182, #62, #89, .T. ) ;
#3 = FACE_OUTER_BOUND ( 'NONE', #165, .T. ) ;
#4 = DIRECTION ( 'NONE',  ( 0.000000000000000000, 1.000000000000000000, -0.000000000000000000 ) ) ;
#5 = DIRECTION ( 'NONE',  ( -0.000000000000000000, -0.000000000000000000, -1.000000000000000000 ) ) ;
#6 = PERSON_AND_ORGANIZATION_ROLE ( 'creator' ) ;
#7 = PERSON_AND_ORGANIZATION ( #47, #23 ) ;
#8 = AXIS2_PLACEMENT_3D ( 'NONE', #169, #110, #52 ) ;
#9 = DATE_AND_TIME ( #112, #171 ) ;
#10 = EDGE_CURVE ( 'NONE', #182, #14, #68, .T. ) ;
#11 = MANIFOLD_SOLID_BREP ( 'Cut-Revolve1', #160 ) ;
#12 = AXIS2_PLACEMENT_3D ( 'NONE', #120, #94, #157 ) ;
#13 = ORIENTED_EDGE ( 'NONE', *, *, #159, .T. ) ;
#14 = VERTEX_POINT ( 'NONE', #28 ) ;
#15 = AXIS2_PLACEMENT_3D ( 'NONE', #93, #20, #96 ) ;
#16 = APPLICATION_CONTEXT ( 'configuration controlled 3d designs of mechanical parts and assemblies' ) ;
#17 = CC_DESIGN_PERSON_AND_ORGANIZATION_ASSIGNMENT ( #87, #6, ( #88 ) ) ;
#18 = CARTESIAN_POINT ( 'NONE',  ( -6.349999999999999645, 0.000000000000000000, 6.000000000000000000 ) ) ;
#19 = CARTESIAN_POINT ( 'NONE',  ( 2.000102180355122047E-14, 0.000000000000000000, 5.798183851210447770 ) ) ;
#20 = DIRECTION ( 'NONE',  ( 0.000000000000000000, 0.000000000000000000, 1.000000000000000000 ) ) ;
#21 = DIRECTION ( 'NONE',  ( 0.000000000000000000, -1.000000000000000000, -0.000000000000000000 ) ) ;
#22 = PERSON_AND_ORGANIZATION_ROLE ( 'classification_officer' ) ;
#23 = ORGANIZATION ( 'UNSPECIFIED', 'UNSPECIFIED', '' ) ;
#24 = APPROVAL_ROLE ( '' ) ;
#25 = DATE_AND_TIME ( #162, #36 ) ;
#26 = APPROVAL_STATUS ( 'not_yet_approved' ) ;
#27 = CC_DESIGN_PERSON_AND_ORGANIZATION_ASSIGNMENT ( #148, #57, ( #181 ) ) ;
#28 = CARTESIAN_POINT ( 'NONE',  ( -6.350000000000013856, 0.000000000000000000, 6.000000000000005329 ) ) ;
#29 = VECTOR ( 'NONE', #186, 1000.000000000000000 ) ;
#30 = ORIENTED_EDGE ( 'NONE', *, *, #10, .T. ) ;
#31 = APPLICATION_CONTEXT ( 'configuration controlled 3d designs of mechanical parts and assemblies' ) ;
#32 = EDGE_CURVE ( 'NONE', #14, #166, #75, .T. ) ;
#33 = CARTESIAN_POINT ( 'NONE',  ( 0.000000000000000000, 0.000000000000000000, 6.000000000000000000 ) ) ;
#34 = CARTESIAN_POINT ( 'NONE',  ( 6.349999999999999645, 7.776507174585692163E-16, 0.000000000000000000 ) ) ;
#35 = DIRECTION ( 'NONE',  ( -0.000000000000000000, -0.000000000000000000, -1.000000000000000000 ) ) ;
#36 = LOCAL_TIME ( 10, 44, 14.00000000000000000, #191 ) ;
#37 = CARTESIAN_POINT ( 'NONE',  ( 1.387778780781445676E-14, 0.000000000000000000, 105.7981838512104531 ) ) ;
#38 = CIRCLE ( 'NONE', #149, 100.0000000000000000 ) ;
#39 = DATE_TIME_ROLE ( 'creation_date' ) ;
#40 = ADVANCED_FACE ( 'NONE', ( #153 ), #124, .F. ) ;
#41 = DATE_AND_TIME ( #143, #131 ) ;
#42 = DIRECTION ( 'NONE',  ( -0.000000000000000000, -0.000000000000000000, -1.000000000000000000 ) ) ;
#43 = SECURITY_CLASSIFICATION ( '', '', #130 ) ;
#44 = APPROVAL_PERSON_ORGANIZATION ( #132, #77, #146 ) ;
#45 = ORIENTED_EDGE ( 'NONE', *, *, #32, .T. ) ;
#46 = CARTESIAN_POINT ( 'NONE',  ( 6.349999999999999645, 7.776507174585692163E-16, 6.000000000000000000 ) ) ;
#47 = PERSON ( 'UNSPECIFIED', 'UNSPECIFIED', 'UNSPECIFIED', ('UNSPECIFIED'), ('UNSPECIFIED'), ('UNSPECIFIED') ) ;
#48 = CC_DESIGN_PERSON_AND_ORGANIZATION_ASSIGNMENT ( #176, #74, ( #181 ) ) ;
#49 = DIRECTION ( 'NONE',  ( -1.000000000000000000, 0.000000000000000000, 0.000000000000000000 ) ) ;
#50 = FACE_OUTER_BOUND ( 'NONE', #167, .T. ) ;
#51 = APPROVAL_PERSON_ORGANIZATION ( #71, #108, #24 ) ;
#52 = DIRECTION ( 'NONE',  ( 1.000000000000000000, 1.224646799147353207E-16, 0.000000000000000000 ) ) ;
#53 = AXIS2_PLACEMENT_3D ( 'NONE', #194, #129, #163 ) ;
#54 = ADVANCED_FACE ( 'NONE', ( #50 ), #109, .F. ) ;
#55 = UNCERTAINTY_MEASURE_WITH_UNIT (LENGTH_MEASURE( 1.000000000000000082E-05 ), #138, 'distance_accuracy_value', 'NONE');
#56 = COORDINATED_UNIVERSAL_TIME_OFFSET ( 2, 0, .AHEAD. ) ;
#57 = PERSON_AND_ORGANIZATION_ROLE ( 'design_supplier' ) ;
#58 = PRODUCT_RELATED_PRODUCT_CATEGORY ( 'detail', '', ( #198 ) ) ;
#59 = CIRCLE ( 'NONE', #111, 6.349999999999999645 ) ;
#60 = SHAPE_DEFINITION_REPRESENTATION ( #117, #126 ) ;
#61 = ORIENTED_EDGE ( 'NONE', *, *, #159, .F. ) ;
#62 = VERTEX_POINT ( 'NONE', #34 ) ;
#63 = CC_DESIGN_APPROVAL ( #108, ( #181 ) ) ;
#64 = ORIENTED_EDGE ( 'NONE', *, *, #179, .T. ) ;
#65 = AXIS2_PLACEMENT_3D ( 'NONE', #33, #5, #49 ) ;
#66 = ORIENTED_EDGE ( 'NONE', *, *, #10, .F. ) ;
#67 = DIRECTION ( 'NONE',  ( 0.000000000000000000, 0.000000000000000000, 1.000000000000000000 ) ) ;
#68 = CIRCLE ( 'NONE', #95, 6.350000000000028066 ) ;
#69 = APPLICATION_PROTOCOL_DEFINITION ( 'international standard', 'config_control_design', 1994, #16 ) ;
#70 = CARTESIAN_POINT ( 'NONE',  ( 1.387778780781445676E-14, 0.000000000000000000, 105.7981838512104531 ) ) ;
#71 = PERSON_AND_ORGANIZATION ( #47, #23 ) ;
#72 = EDGE_CURVE ( 'NONE', #197, #62, #105, .T. ) ;
#73 = APPROVAL_STATUS ( 'not_yet_approved' ) ;
#74 = PERSON_AND_ORGANIZATION_ROLE ( 'creator' ) ;
#75 = CIRCLE ( 'NONE', #8, 100.0000000000000000 ) ;
#76 = CALENDAR_DATE ( 2021, 25, 2 ) ;
#77 = APPROVAL ( #73, 'UNSPECIFIED' ) ;
#78 = EDGE_LOOP ( 'NONE', ( #199, #106 ) ) ;
#79 = CYLINDRICAL_SURFACE ( 'NONE', #196, 6.349999999999999645 ) ;
#80 = DIRECTION ( 'NONE',  ( 1.000000000000000000, 0.000000000000000000, 0.000000000000000000 ) ) ;
#81 = DIRECTION ( 'NONE',  ( 1.000000000000000000, 0.000000000000000000, 0.000000000000000000 ) ) ;
#82 = APPROVAL_ROLE ( '' ) ;
#83 = CC_DESIGN_PERSON_AND_ORGANIZATION_ASSIGNMENT ( #177, #98, ( #198 ) ) ;
#84 = COORDINATED_UNIVERSAL_TIME_OFFSET ( 2, 0, .AHEAD. ) ;
#85 = APPROVAL_STATUS ( 'not_yet_approved' ) ;
#86 = LOCAL_TIME ( 10, 44, 14.00000000000000000, #100 ) ;
#87 = PERSON_AND_ORGANIZATION ( #47, #23 ) ;
#88 = PRODUCT_DEFINITION ( 'UNKNOWN', '', #181, #190 ) ;
#89 = LINE ( 'NONE', #46, #192 ) ;
#90 = CIRCLE ( 'NONE', #114, 6.350000000000028066 ) ;
#91 = CC_DESIGN_DATE_AND_TIME_ASSIGNMENT ( #144, #161, ( #43 ) ) ;
#92 = ORIENTED_EDGE ( 'NONE', *, *, #2, .F. ) ;
#93 = CARTESIAN_POINT ( 'NONE',  ( 0.000000000000000000, 0.000000000000000000, 0.000000000000000000 ) ) ;
#94 = DIRECTION ( 'NONE',  ( 0.000000000000000000, 0.000000000000000000, 1.000000000000000000 ) ) ;
#95 = AXIS2_PLACEMENT_3D ( 'NONE', #184, #42, #103 ) ;
#96 = DIRECTION ( 'NONE',  ( 1.000000000000000000, 0.000000000000000000, 0.000000000000000000 ) ) ;
#97 = DIRECTION ( 'NONE',  ( 0.000000000000000000, -1.000000000000000000, -0.000000000000000000 ) ) ;
#98 = PERSON_AND_ORGANIZATION_ROLE ( 'design_owner' ) ;
#99 = DATE_AND_TIME ( #115, #86 ) ;
#100 = COORDINATED_UNIVERSAL_TIME_OFFSET ( 2, 0, .AHEAD. ) ;
#101 = APPROVAL_DATE_TIME ( #41, #152 ) ;
#102 = ADVANCED_FACE ( 'NONE', ( #1 ), #79, .T. ) ;
#103 = DIRECTION ( 'NONE',  ( 1.000000000000000000, 0.000000000000000000, 0.000000000000000000 ) ) ;
#104 = CC_DESIGN_APPROVAL ( #77, ( #43 ) ) ;
#105 = CIRCLE ( 'NONE', #15, 6.349999999999999645 ) ;
#106 = ORIENTED_EDGE ( 'NONE', *, *, #174, .F. ) ;
#107 = CYLINDRICAL_SURFACE ( 'NONE', #65, 6.349999999999999645 ) ;
#108 = APPROVAL ( #85, 'UNSPECIFIED' ) ;
#109 = SPHERICAL_SURFACE ( 'NONE', #118, 100.0000000000000000 ) ;
#110 = DIRECTION ( 'NONE',  ( 1.224646799147353207E-16, -1.000000000000000000, 0.000000000000000000 ) ) ;
#111 = AXIS2_PLACEMENT_3D ( 'NONE', #168, #122, #80 ) ;
#112 = CALENDAR_DATE ( 2021, 25, 2 ) ;
#113 = PERSON_AND_ORGANIZATION ( #47, #23 ) ;
#114 = AXIS2_PLACEMENT_3D ( 'NONE', #140, #35, #142 ) ;
#115 = CALENDAR_DATE ( 2021, 25, 2 ) ;
#116 = ORIENTED_EDGE ( 'NONE', *, *, #179, .F. ) ;
#117 = PRODUCT_DEFINITION_SHAPE ( 'NONE', 'NONE',  #88 ) ;
#118 = AXIS2_PLACEMENT_3D ( 'NONE', #37, #97, #158 ) ;
#119 = DIRECTION ( 'NONE',  ( -0.000000000000000000, -0.000000000000000000, -1.000000000000000000 ) ) ;
#120 = CARTESIAN_POINT ( 'NONE',  ( 0.000000000000000000, 0.000000000000000000, 0.000000000000000000 ) ) ;
#121 = ADVANCED_FACE ( 'NONE', ( #173 ), #136, .F. ) ;
#122 = DIRECTION ( 'NONE',  ( 0.000000000000000000, 0.000000000000000000, 1.000000000000000000 ) ) ;
#123 = AXIS2_PLACEMENT_3D ( 'NONE', #188, #21, #81 ) ;
#124 = SPHERICAL_SURFACE ( 'NONE', #123, 100.0000000000000000 ) ;
#125 =( NAMED_UNIT ( * ) PLANE_ANGLE_UNIT ( ) SI_UNIT ( $, .RADIAN. ) );
#126 = ADVANCED_BREP_SHAPE_REPRESENTATION ( '010-0105T6_N-BK7_PCV_window', ( #11, #53 ), #135 ) ;
#127 = APPROVAL_DATE_TIME ( #99, #108 ) ;
#128 = MECHANICAL_CONTEXT ( 'NONE', #16, 'mechanical' ) ;
#129 = DIRECTION ( 'NONE',  ( 0.000000000000000000, 0.000000000000000000, 1.000000000000000000 ) ) ;
#130 = SECURITY_CLASSIFICATION_LEVEL ( 'unclassified' ) ;
#131 = LOCAL_TIME ( 10, 44, 14.00000000000000000, #147 ) ;
#132 = PERSON_AND_ORGANIZATION ( #47, #23 ) ;
#133 = ORIENTED_EDGE ( 'NONE', *, *, #137, .F. ) ;
#134 = EDGE_LOOP ( 'NONE', ( #92, #30, #13, #150 ) ) ;
#135 =( GEOMETRIC_REPRESENTATION_CONTEXT ( 3 ) GLOBAL_UNCERTAINTY_ASSIGNED_CONTEXT ( ( #55 ) ) GLOBAL_UNIT_ASSIGNED_CONTEXT ( ( #138, #125, #189 ) ) REPRESENTATION_CONTEXT ( 'NONE', 'WORKASPACE' ) );
#136 = PLANE ( 'NONE',  #12 ) ;
#137 = EDGE_CURVE ( 'NONE', #14, #182, #90, .T. ) ;
#138 =( LENGTH_UNIT ( ) NAMED_UNIT ( * ) SI_UNIT ( .MILLI., .METRE. ) );
#139 = CC_DESIGN_SECURITY_CLASSIFICATION ( #43, ( #181 ) ) ;
#140 = CARTESIAN_POINT ( 'NONE',  ( 1.387778780781445676E-14, 0.000000000000000000, 6.000000000000005329 ) ) ;
#141 = CARTESIAN_POINT ( 'NONE',  ( -6.349999999999999645, 0.000000000000000000, 0.000000000000000000 ) ) ;
#142 = DIRECTION ( 'NONE',  ( 1.000000000000000000, 0.000000000000000000, 0.000000000000000000 ) ) ;
#143 = CALENDAR_DATE ( 2021, 25, 2 ) ;
#144 = DATE_AND_TIME ( #76, #155 ) ;
#145 = CC_DESIGN_DATE_AND_TIME_ASSIGNMENT ( #9, #39, ( #88 ) ) ;
#146 = APPROVAL_ROLE ( '' ) ;
#147 = COORDINATED_UNIVERSAL_TIME_OFFSET ( 2, 0, .AHEAD. ) ;
#148 = PERSON_AND_ORGANIZATION ( #47, #23 ) ;
#149 = AXIS2_PLACEMENT_3D ( 'NONE', #70, #4, #67 ) ;
#150 = ORIENTED_EDGE ( 'NONE', *, *, #72, .T. ) ;
#151 = ORIENTED_EDGE ( 'NONE', *, *, #174, .T. ) ;
#152 = APPROVAL ( #26, 'UNSPECIFIED' ) ;
#153 = FACE_OUTER_BOUND ( 'NONE', #178, .T. ) ;
#154 = CARTESIAN_POINT ( 'NONE',  ( 6.350000000000042277, 7.776507174585744425E-16, 6.000000000000005329 ) ) ;
#155 = LOCAL_TIME ( 10, 44, 14.00000000000000000, #84 ) ;
#156 = LINE ( 'NONE', #18, #29 ) ;
#157 = DIRECTION ( 'NONE',  ( 1.000000000000000000, 0.000000000000000000, -0.000000000000000000 ) ) ;
#158 = DIRECTION ( 'NONE',  ( 1.000000000000000000, 0.000000000000000000, 0.000000000000000000 ) ) ;
#159 = EDGE_CURVE ( 'NONE', #14, #197, #156, .T. ) ;
#160 = CLOSED_SHELL ( 'NONE', ( #40, #195, #102, #121, #54 ) ) ;
#161 = DATE_TIME_ROLE ( 'classification_date' ) ;
#162 = CALENDAR_DATE ( 2021, 25, 2 ) ;
#163 = DIRECTION ( 'NONE',  ( 1.000000000000000000, 0.000000000000000000, 0.000000000000000000 ) ) ;
#164 = ORIENTED_EDGE ( 'NONE', *, *, #2, .T. ) ;
#165 = EDGE_LOOP ( 'NONE', ( #201, #164, #151, #61 ) ) ;
#166 = VERTEX_POINT ( 'NONE', #19 ) ;
#167 = EDGE_LOOP ( 'NONE', ( #180, #66, #64 ) ) ;
#168 = CARTESIAN_POINT ( 'NONE',  ( 0.000000000000000000, 0.000000000000000000, 0.000000000000000000 ) ) ;
#169 = CARTESIAN_POINT ( 'NONE',  ( 1.387778780781445676E-14, 0.000000000000000000, 105.7981838512104531 ) ) ;
#170 = CARTESIAN_POINT ( 'NONE',  ( 0.000000000000000000, 0.000000000000000000, 6.000000000000000000 ) ) ;
#171 = LOCAL_TIME ( 10, 44, 14.00000000000000000, #56 ) ;
#172 = DIRECTION ( 'NONE',  ( -0.000000000000000000, -0.000000000000000000, -1.000000000000000000 ) ) ;
#173 = FACE_OUTER_BOUND ( 'NONE', #78, .T. ) ;
#174 = EDGE_CURVE ( 'NONE', #62, #197, #59, .T. ) ;
#175 = APPLICATION_PROTOCOL_DEFINITION ( 'international standard', 'config_control_design', 1994, #31 ) ;
#176 = PERSON_AND_ORGANIZATION ( #47, #23 ) ;
#177 = PERSON_AND_ORGANIZATION ( #47, #23 ) ;
#178 = EDGE_LOOP ( 'NONE', ( #133, #45, #116 ) ) ;
#179 = EDGE_CURVE ( 'NONE', #182, #166, #38, .T. ) ;
#180 = ORIENTED_EDGE ( 'NONE', *, *, #32, .F. ) ;
#181 = PRODUCT_DEFINITION_FORMATION_WITH_SPECIFIED_SOURCE ( 'ANY', '', #198, .NOT_KNOWN. ) ;
#182 = VERTEX_POINT ( 'NONE', #154 ) ;
#183 = CC_DESIGN_APPROVAL ( #152, ( #88 ) ) ;
#184 = CARTESIAN_POINT ( 'NONE',  ( 1.387778780781445676E-14, 0.000000000000000000, 6.000000000000005329 ) ) ;
#185 = DIRECTION ( 'NONE',  ( -1.000000000000000000, 0.000000000000000000, 0.000000000000000000 ) ) ;
#186 = DIRECTION ( 'NONE',  ( -0.000000000000000000, -0.000000000000000000, -1.000000000000000000 ) ) ;
#187 = APPROVAL_PERSON_ORGANIZATION ( #7, #152, #82 ) ;
#188 = CARTESIAN_POINT ( 'NONE',  ( 1.387778780781445676E-14, 0.000000000000000000, 105.7981838512104531 ) ) ;
#189 =( NAMED_UNIT ( * ) SI_UNIT ( $, .STERADIAN. ) SOLID_ANGLE_UNIT ( ) );
#190 = DESIGN_CONTEXT ( 'detailed design', #31, 'design' ) ;
#191 = COORDINATED_UNIVERSAL_TIME_OFFSET ( 2, 0, .AHEAD. ) ;
#192 = VECTOR ( 'NONE', #119, 1000.000000000000000 ) ;
#193 = APPROVAL_DATE_TIME ( #25, #77 ) ;
#194 = CARTESIAN_POINT ( 'NONE',  ( 0.000000000000000000, 0.000000000000000000, 0.000000000000000000 ) ) ;
#195 = ADVANCED_FACE ( 'NONE', ( #3 ), #107, .T. ) ;
#196 = AXIS2_PLACEMENT_3D ( 'NONE', #170, #172, #185 ) ;
#197 = VERTEX_POINT ( 'NONE', #141 ) ;
#198 = PRODUCT ( '010-0105T6_N-BK7_PCV_window', '010-0105T6_N-BK7_PCV_window', '', ( #128 ) ) ;
#199 = ORIENTED_EDGE ( 'NONE', *, *, #72, .F. ) ;
#200 = CC_DESIGN_PERSON_AND_ORGANIZATION_ASSIGNMENT ( #113, #22, ( #43 ) ) ;
#201 = ORIENTED_EDGE ( 'NONE', *, *, #137, .T. ) ;
ENDSEC;
END-ISO-10303-21;
