ISO-10303-21;
HEADER;
FILE_DESCRIPTION (( 'STEP AP203' ),
    '1' );
FILE_NAME ('010-0105E_N-BK7_PCV_window.STEP',
    '2021-02-25T08:15:33',
    ( '' ),
    ( '' ),
    'SwSTEP 2.0',
    'SolidWorks 2019',
    '' );
FILE_SCHEMA (( 'CONFIG_CONTROL_DESIGN' ));
ENDSEC;

DATA;
#1 = AXIS2_PLACEMENT_3D ( 'NONE', #183, #149, #5 ) ;
#2 = APPROVAL_PERSON_ORGANIZATION ( #43, #140, #12 ) ;
#3 = ADVANCED_FACE ( 'NONE', ( #67 ), #96, .T. ) ;
#4 = APPROVAL ( #109, 'UNSPECIFIED' ) ;
#5 = DIRECTION ( 'NONE',  ( 1.000000000000000000, 0.000000000000000000, 0.000000000000000000 ) ) ;
#6 = CARTESIAN_POINT ( 'NONE',  ( 1.387778780781445676E-14, 0.000000000000000000, 102.7981838512104531 ) ) ;
#7 = VECTOR ( 'NONE', #186, 1000.000000000000000 ) ;
#8 = VERTEX_POINT ( 'NONE', #36 ) ;
#9 = DIRECTION ( 'NONE',  ( 1.000000000000000000, 0.000000000000000000, 0.000000000000000000 ) ) ;
#10 = EDGE_CURVE ( 'NONE', #61, #23, #82, .T. ) ;
#11 = CARTESIAN_POINT ( 'NONE',  ( 0.000000000000000000, 0.000000000000000000, 0.000000000000000000 ) ) ;
#12 = APPROVAL_ROLE ( '' ) ;
#13 = FACE_OUTER_BOUND ( 'NONE', #113, .T. ) ;
#14 = PERSON_AND_ORGANIZATION ( #133, #34 ) ;
#15 = DIRECTION ( 'NONE',  ( 1.000000000000000000, 0.000000000000000000, 0.000000000000000000 ) ) ;
#16 = CC_DESIGN_PERSON_AND_ORGANIZATION_ASSIGNMENT ( #72, #73, ( #84 ) ) ;
#17 = DIRECTION ( 'NONE',  ( 0.000000000000000000, 0.000000000000000000, 1.000000000000000000 ) ) ;
#18 = APPROVAL_DATE_TIME ( #42, #140 ) ;
#19 = APPROVAL_ROLE ( '' ) ;
#20 = AXIS2_PLACEMENT_3D ( 'NONE', #6, #22, #116 ) ;
#21 = SECURITY_CLASSIFICATION ( '', '', #173 ) ;
#22 = DIRECTION ( 'NONE',  ( 0.000000000000000000, 1.000000000000000000, -0.000000000000000000 ) ) ;
#23 = VERTEX_POINT ( 'NONE', #151 ) ;
#24 = DIRECTION ( 'NONE',  ( -0.000000000000000000, -0.000000000000000000, -1.000000000000000000 ) ) ;
#25 = AXIS2_PLACEMENT_3D ( 'NONE', #89, #158, #9 ) ;
#26 = FACE_OUTER_BOUND ( 'NONE', #131, .T. ) ;
#27 = CARTESIAN_POINT ( 'NONE',  ( 1.387778780781445676E-14, 0.000000000000000000, 102.7981838512104531 ) ) ;
#28 = DIRECTION ( 'NONE',  ( -0.000000000000000000, -0.000000000000000000, -1.000000000000000000 ) ) ;
#29 = COORDINATED_UNIVERSAL_TIME_OFFSET ( 2, 0, .AHEAD. ) ;
#30 = APPLICATION_PROTOCOL_DEFINITION ( 'international standard', 'config_control_design', 1994, #33 ) ;
#31 = DATE_AND_TIME ( #91, #98 ) ;
#32 = EDGE_CURVE ( 'NONE', #61, #137, #65, .T. ) ;
#33 = APPLICATION_CONTEXT ( 'configuration controlled 3d designs of mechanical parts and assemblies' ) ;
#34 = ORGANIZATION ( 'UNSPECIFIED', 'UNSPECIFIED', '' ) ;
#35 = CC_DESIGN_PERSON_AND_ORGANIZATION_ASSIGNMENT ( #161, #146, ( #84 ) ) ;
#36 = CARTESIAN_POINT ( 'NONE',  ( 6.349999999999999645, 7.776507174585692163E-16, 0.000000000000000000 ) ) ;
#37 = ORIENTED_EDGE ( 'NONE', *, *, #118, .F. ) ;
#38 = CC_DESIGN_APPROVAL ( #140, ( #150 ) ) ;
#39 = LINE ( 'NONE', #117, #7 ) ;
#40 = COORDINATED_UNIVERSAL_TIME_OFFSET ( 2, 0, .AHEAD. ) ;
#41 = CIRCLE ( 'NONE', #25, 6.349999999999999645 ) ;
#42 = DATE_AND_TIME ( #53, #171 ) ;
#43 = PERSON_AND_ORGANIZATION ( #133, #34 ) ;
#44 = ADVANCED_FACE ( 'NONE', ( #63 ), #97, .F. ) ;
#45 = MANIFOLD_SOLID_BREP ( 'Cut-Revolve1', #153 ) ;
#46 = CC_DESIGN_PERSON_AND_ORGANIZATION_ASSIGNMENT ( #14, #190, ( #21 ) ) ;
#47 = ORIENTED_EDGE ( 'NONE', *, *, #110, .F. ) ;
#48 = ORIENTED_EDGE ( 'NONE', *, *, #62, .T. ) ;
#49 = ORIENTED_EDGE ( 'NONE', *, *, #32, .T. ) ;
#50 = ORIENTED_EDGE ( 'NONE', *, *, #102, .F. ) ;
#51 = ORIENTED_EDGE ( 'NONE', *, *, #110, .T. ) ;
#52 = DIRECTION ( 'NONE',  ( 1.000000000000000000, 0.000000000000000000, 0.000000000000000000 ) ) ;
#53 = CALENDAR_DATE ( 2021, 25, 2 ) ;
#54 = DIRECTION ( 'NONE',  ( 1.000000000000000000, 1.224646799147353207E-16, 0.000000000000000000 ) ) ;
#55 = DATE_TIME_ROLE ( 'creation_date' ) ;
#56 = DIRECTION ( 'NONE',  ( 1.000000000000000000, 0.000000000000000000, -0.000000000000000000 ) ) ;
#57 = DATE_AND_TIME ( #200, #139 ) ;
#58 = APPROVAL_PERSON_ORGANIZATION ( #60, #4, #19 ) ;
#59 = PERSON_AND_ORGANIZATION ( #133, #34 ) ;
#60 = PERSON_AND_ORGANIZATION ( #133, #34 ) ;
#61 = VERTEX_POINT ( 'NONE', #181 ) ;
#62 = EDGE_CURVE ( 'NONE', #182, #8, #112, .T. ) ;
#63 = FACE_OUTER_BOUND ( 'NONE', #195, .T. ) ;
#64 = ORIENTED_EDGE ( 'NONE', *, *, #10, .T. ) ;
#65 = CIRCLE ( 'NONE', #1, 6.350000000000028066 ) ;
#66 = UNCERTAINTY_MEASURE_WITH_UNIT (LENGTH_MEASURE( 1.000000000000000082E-05 ), #170, 'distance_accuracy_value', 'NONE');
#67 = FACE_OUTER_BOUND ( 'NONE', #152, .T. ) ;
#68 = FACE_OUTER_BOUND ( 'NONE', #166, .T. ) ;
#69 = DIRECTION ( 'NONE',  ( 1.224646799147353207E-16, -1.000000000000000000, 0.000000000000000000 ) ) ;
#70 = PERSON_AND_ORGANIZATION_ROLE ( 'creator' ) ;
#71 = PLANE ( 'NONE',  #114 ) ;
#72 = PERSON_AND_ORGANIZATION ( #133, #34 ) ;
#73 = PERSON_AND_ORGANIZATION_ROLE ( 'design_supplier' ) ;
#74 = VECTOR ( 'NONE', #156, 1000.000000000000000 ) ;
#75 =( NAMED_UNIT ( * ) PLANE_ANGLE_UNIT ( ) SI_UNIT ( $, .RADIAN. ) );
#76 = PRODUCT_DEFINITION_SHAPE ( 'NONE', 'NONE',  #150 ) ;
#77 = LOCAL_TIME ( 10, 15, 33.00000000000000000, #174 ) ;
#78 = LOCAL_TIME ( 10, 15, 33.00000000000000000, #177 ) ;
#79 = EDGE_CURVE ( 'NONE', #8, #182, #41, .T. ) ;
#80 = ORIENTED_EDGE ( 'NONE', *, *, #102, .T. ) ;
#81 = ORIENTED_EDGE ( 'NONE', *, *, #79, .T. ) ;
#82 = CIRCLE ( 'NONE', #20, 100.0000000000000000 ) ;
#83 = ORIENTED_EDGE ( 'NONE', *, *, #118, .T. ) ;
#84 = PRODUCT_DEFINITION_FORMATION_WITH_SPECIFIED_SOURCE ( 'ANY', '', #124, .NOT_KNOWN. ) ;
#85 = SPHERICAL_SURFACE ( 'NONE', #130, 100.0000000000000000 ) ;
#86 = CARTESIAN_POINT ( 'NONE',  ( -6.350000000000013856, 0.000000000000000000, 3.000000000000002665 ) ) ;
#87 = MECHANICAL_CONTEXT ( 'NONE', #128, 'mechanical' ) ;
#88 = AXIS2_PLACEMENT_3D ( 'NONE', #107, #92, #159 ) ;
#89 = CARTESIAN_POINT ( 'NONE',  ( 0.000000000000000000, 0.000000000000000000, 0.000000000000000000 ) ) ;
#90 = APPROVAL_STATUS ( 'not_yet_approved' ) ;
#91 = CALENDAR_DATE ( 2021, 25, 2 ) ;
#92 = DIRECTION ( 'NONE',  ( -0.000000000000000000, -0.000000000000000000, -1.000000000000000000 ) ) ;
#93 = CC_DESIGN_DATE_AND_TIME_ASSIGNMENT ( #57, #160, ( #21 ) ) ;
#94 = CARTESIAN_POINT ( 'NONE',  ( -6.349999999999999645, 0.000000000000000000, 0.000000000000000000 ) ) ;
#95 = EDGE_CURVE ( 'NONE', #137, #182, #39, .T. ) ;
#96 = CYLINDRICAL_SURFACE ( 'NONE', #178, 6.349999999999999645 ) ;
#97 = SPHERICAL_SURFACE ( 'NONE', #106, 100.0000000000000000 ) ;
#98 = LOCAL_TIME ( 10, 15, 33.00000000000000000, #40 ) ;
#99 = CC_DESIGN_APPROVAL ( #4, ( #21 ) ) ;
#100 = AXIS2_PLACEMENT_3D ( 'NONE', #172, #28, #155 ) ;
#101 = CARTESIAN_POINT ( 'NONE',  ( 1.387778780781445676E-14, 0.000000000000000000, 102.7981838512104531 ) ) ;
#102 = EDGE_CURVE ( 'NONE', #137, #23, #145, .T. ) ;
#103 = LINE ( 'NONE', #184, #74 ) ;
#104 = APPROVAL_DATE_TIME ( #31, #126 ) ;
#105 = CC_DESIGN_SECURITY_CLASSIFICATION ( #21, ( #84 ) ) ;
#106 = AXIS2_PLACEMENT_3D ( 'NONE', #101, #120, #52 ) ;
#107 = CARTESIAN_POINT ( 'NONE',  ( 0.000000000000000000, 0.000000000000000000, 3.000000000000000000 ) ) ;
#108 = DIRECTION ( 'NONE',  ( 1.000000000000000000, 0.000000000000000000, 0.000000000000000000 ) ) ;
#109 = APPROVAL_STATUS ( 'not_yet_approved' ) ;
#110 = EDGE_CURVE ( 'NONE', #61, #8, #103, .T. ) ;
#111 = SHAPE_DEFINITION_REPRESENTATION ( #76, #123 ) ;
#112 = CIRCLE ( 'NONE', #135, 6.349999999999999645 ) ;
#113 = EDGE_LOOP ( 'NONE', ( #134, #132 ) ) ;
#114 = AXIS2_PLACEMENT_3D ( 'NONE', #142, #199, #56 ) ;
#115 = CARTESIAN_POINT ( 'NONE',  ( 0.000000000000000000, 0.000000000000000000, 3.000000000000000000 ) ) ;
#116 = DIRECTION ( 'NONE',  ( 0.000000000000000000, 0.000000000000000000, 1.000000000000000000 ) ) ;
#117 = CARTESIAN_POINT ( 'NONE',  ( -6.349999999999999645, 0.000000000000000000, 3.000000000000000000 ) ) ;
#118 = EDGE_CURVE ( 'NONE', #137, #61, #192, .T. ) ;
#119 = CYLINDRICAL_SURFACE ( 'NONE', #88, 6.349999999999999645 ) ;
#120 = DIRECTION ( 'NONE',  ( 0.000000000000000000, -1.000000000000000000, -0.000000000000000000 ) ) ;
#121 =( NAMED_UNIT ( * ) SI_UNIT ( $, .STERADIAN. ) SOLID_ANGLE_UNIT ( ) );
#122 = CALENDAR_DATE ( 2021, 25, 2 ) ;
#123 = ADVANCED_BREP_SHAPE_REPRESENTATION ( '010-0105E_N-BK7_PCV_window', ( #45, #194 ), #175 ) ;
#124 = PRODUCT ( '010-0105E_N-BK7_PCV_window', '010-0105E_N-BK7_PCV_window', '', ( #87 ) ) ;
#125 = APPLICATION_PROTOCOL_DEFINITION ( 'international standard', 'config_control_design', 1994, #128 ) ;
#126 = APPROVAL ( #90, 'UNSPECIFIED' ) ;
#127 = CC_DESIGN_APPROVAL ( #126, ( #84 ) ) ;
#128 = APPLICATION_CONTEXT ( 'configuration controlled 3d designs of mechanical parts and assemblies' ) ;
#129 = DATE_AND_TIME ( #179, #78 ) ;
#130 = AXIS2_PLACEMENT_3D ( 'NONE', #141, #196, #15 ) ;
#131 = EDGE_LOOP ( 'NONE', ( #83, #51, #81, #167 ) ) ;
#132 = ORIENTED_EDGE ( 'NONE', *, *, #79, .F. ) ;
#133 = PERSON ( 'UNSPECIFIED', 'UNSPECIFIED', 'UNSPECIFIED', ('UNSPECIFIED'), ('UNSPECIFIED'), ('UNSPECIFIED') ) ;
#134 = ORIENTED_EDGE ( 'NONE', *, *, #62, .F. ) ;
#135 = AXIS2_PLACEMENT_3D ( 'NONE', #11, #197, #169 ) ;
#136 = ORIENTED_EDGE ( 'NONE', *, *, #32, .F. ) ;
#137 = VERTEX_POINT ( 'NONE', #86 ) ;
#138 = DESIGN_CONTEXT ( 'detailed design', #33, 'design' ) ;
#139 = LOCAL_TIME ( 10, 15, 33.00000000000000000, #143 ) ;
#140 = APPROVAL ( #189, 'UNSPECIFIED' ) ;
#141 = CARTESIAN_POINT ( 'NONE',  ( 1.387778780781445676E-14, 0.000000000000000000, 102.7981838512104531 ) ) ;
#142 = CARTESIAN_POINT ( 'NONE',  ( 0.000000000000000000, 0.000000000000000000, 0.000000000000000000 ) ) ;
#143 = COORDINATED_UNIVERSAL_TIME_OFFSET ( 2, 0, .AHEAD. ) ;
#144 = PRODUCT_RELATED_PRODUCT_CATEGORY ( 'detail', '', ( #124 ) ) ;
#145 = CIRCLE ( 'NONE', #188, 100.0000000000000000 ) ;
#146 = PERSON_AND_ORGANIZATION_ROLE ( 'creator' ) ;
#147 = ADVANCED_FACE ( 'NONE', ( #13 ), #71, .F. ) ;
#148 = ADVANCED_FACE ( 'NONE', ( #68 ), #85, .F. ) ;
#149 = DIRECTION ( 'NONE',  ( -0.000000000000000000, -0.000000000000000000, -1.000000000000000000 ) ) ;
#150 = PRODUCT_DEFINITION ( 'UNKNOWN', '', #84, #138 ) ;
#151 = CARTESIAN_POINT ( 'NONE',  ( 2.000102180355122047E-14, 0.000000000000000000, 2.798183851210445106 ) ) ;
#152 = EDGE_LOOP ( 'NONE', ( #47, #49, #154, #48 ) ) ;
#153 = CLOSED_SHELL ( 'NONE', ( #148, #163, #3, #147, #44 ) ) ;
#154 = ORIENTED_EDGE ( 'NONE', *, *, #95, .T. ) ;
#155 = DIRECTION ( 'NONE',  ( 1.000000000000000000, 0.000000000000000000, 0.000000000000000000 ) ) ;
#156 = DIRECTION ( 'NONE',  ( -0.000000000000000000, -0.000000000000000000, -1.000000000000000000 ) ) ;
#157 = PERSON_AND_ORGANIZATION ( #133, #34 ) ;
#158 = DIRECTION ( 'NONE',  ( 0.000000000000000000, 0.000000000000000000, 1.000000000000000000 ) ) ;
#159 = DIRECTION ( 'NONE',  ( -1.000000000000000000, 0.000000000000000000, 0.000000000000000000 ) ) ;
#160 = DATE_TIME_ROLE ( 'classification_date' ) ;
#161 = PERSON_AND_ORGANIZATION ( #133, #34 ) ;
#162 = CARTESIAN_POINT ( 'NONE',  ( 0.000000000000000000, 0.000000000000000000, 0.000000000000000000 ) ) ;
#163 = ADVANCED_FACE ( 'NONE', ( #26 ), #119, .T. ) ;
#164 = APPROVAL_DATE_TIME ( #129, #4 ) ;
#165 = ORIENTED_EDGE ( 'NONE', *, *, #10, .F. ) ;
#166 = EDGE_LOOP ( 'NONE', ( #37, #80, #165 ) ) ;
#167 = ORIENTED_EDGE ( 'NONE', *, *, #95, .F. ) ;
#168 = APPROVAL_PERSON_ORGANIZATION ( #59, #126, #187 ) ;
#169 = DIRECTION ( 'NONE',  ( 1.000000000000000000, 0.000000000000000000, 0.000000000000000000 ) ) ;
#170 =( LENGTH_UNIT ( ) NAMED_UNIT ( * ) SI_UNIT ( .MILLI., .METRE. ) );
#171 = LOCAL_TIME ( 10, 15, 33.00000000000000000, #29 ) ;
#172 = CARTESIAN_POINT ( 'NONE',  ( 1.387778780781445676E-14, 0.000000000000000000, 3.000000000000002665 ) ) ;
#173 = SECURITY_CLASSIFICATION_LEVEL ( 'unclassified' ) ;
#174 = COORDINATED_UNIVERSAL_TIME_OFFSET ( 2, 0, .AHEAD. ) ;
#175 =( GEOMETRIC_REPRESENTATION_CONTEXT ( 3 ) GLOBAL_UNCERTAINTY_ASSIGNED_CONTEXT ( ( #66 ) ) GLOBAL_UNIT_ASSIGNED_CONTEXT ( ( #170, #75, #121 ) ) REPRESENTATION_CONTEXT ( 'NONE', 'WORKASPACE' ) );
#176 = CC_DESIGN_PERSON_AND_ORGANIZATION_ASSIGNMENT ( #157, #201, ( #124 ) ) ;
#177 = COORDINATED_UNIVERSAL_TIME_OFFSET ( 2, 0, .AHEAD. ) ;
#178 = AXIS2_PLACEMENT_3D ( 'NONE', #115, #24, #180 ) ;
#179 = CALENDAR_DATE ( 2021, 25, 2 ) ;
#180 = DIRECTION ( 'NONE',  ( -1.000000000000000000, 0.000000000000000000, 0.000000000000000000 ) ) ;
#181 = CARTESIAN_POINT ( 'NONE',  ( 6.350000000000042277, 7.776507174585744425E-16, 3.000000000000002665 ) ) ;
#182 = VERTEX_POINT ( 'NONE', #94 ) ;
#183 = CARTESIAN_POINT ( 'NONE',  ( 1.387778780781445676E-14, 0.000000000000000000, 3.000000000000002665 ) ) ;
#184 = CARTESIAN_POINT ( 'NONE',  ( 6.349999999999999645, 7.776507174585692163E-16, 3.000000000000000000 ) ) ;
#185 = PERSON_AND_ORGANIZATION ( #133, #34 ) ;
#186 = DIRECTION ( 'NONE',  ( -0.000000000000000000, -0.000000000000000000, -1.000000000000000000 ) ) ;
#187 = APPROVAL_ROLE ( '' ) ;
#188 = AXIS2_PLACEMENT_3D ( 'NONE', #27, #69, #54 ) ;
#189 = APPROVAL_STATUS ( 'not_yet_approved' ) ;
#190 = PERSON_AND_ORGANIZATION_ROLE ( 'classification_officer' ) ;
#191 = CC_DESIGN_PERSON_AND_ORGANIZATION_ASSIGNMENT ( #185, #70, ( #150 ) ) ;
#192 = CIRCLE ( 'NONE', #100, 6.350000000000028066 ) ;
#193 = CC_DESIGN_DATE_AND_TIME_ASSIGNMENT ( #198, #55, ( #150 ) ) ;
#194 = AXIS2_PLACEMENT_3D ( 'NONE', #162, #17, #108 ) ;
#195 = EDGE_LOOP ( 'NONE', ( #50, #136, #64 ) ) ;
#196 = DIRECTION ( 'NONE',  ( 0.000000000000000000, -1.000000000000000000, -0.000000000000000000 ) ) ;
#197 = DIRECTION ( 'NONE',  ( 0.000000000000000000, 0.000000000000000000, 1.000000000000000000 ) ) ;
#198 = DATE_AND_TIME ( #122, #77 ) ;
#199 = DIRECTION ( 'NONE',  ( 0.000000000000000000, 0.000000000000000000, 1.000000000000000000 ) ) ;
#200 = CALENDAR_DATE ( 2021, 25, 2 ) ;
#201 = PERSON_AND_ORGANIZATION_ROLE ( 'design_owner' ) ;
ENDSEC;
END-ISO-10303-21;
