ISO-10303-21;
HEADER;
FILE_DESCRIPTION (( 'STEP AP203' ),
    '1' );
FILE_NAME ('010-0104T6_N-BK7_PCV_window.STEP',
    '2021-02-25T08:43:40',
    ( '' ),
    ( '' ),
    'SwSTEP 2.0',
    'SolidWorks 2019',
    '' );
FILE_SCHEMA (( 'CONFIG_CONTROL_DESIGN' ));
ENDSEC;

DATA;
#1 = COORDINATED_UNIVERSAL_TIME_OFFSET ( 2, 0, .AHEAD. ) ;
#2 = SHAPE_DEFINITION_REPRESENTATION ( #72, #151 ) ;
#3 = AXIS2_PLACEMENT_3D ( 'NONE', #29, #166, #27 ) ;
#4 = ORIENTED_EDGE ( 'NONE', *, *, #89, .F. ) ;
#5 = APPROVAL_PERSON_ORGANIZATION ( #92, #48, #46 ) ;
#6 = ADVANCED_FACE ( 'NONE', ( #25 ), #181, .F. ) ;
#7 = ORIENTED_EDGE ( 'NONE', *, *, #185, .T. ) ;
#8 = AXIS2_PLACEMENT_3D ( 'NONE', #170, #91, #130 ) ;
#9 = DIRECTION ( 'NONE',  ( -0.000000000000000000, -0.000000000000000000, -1.000000000000000000 ) ) ;
#10 = PERSON ( 'UNSPECIFIED', 'UNSPECIFIED', 'UNSPECIFIED', ('UNSPECIFIED'), ('UNSPECIFIED'), ('UNSPECIFIED') ) ;
#11 = VERTEX_POINT ( 'NONE', #197 ) ;
#12 = AXIS2_PLACEMENT_3D ( 'NONE', #180, #139, #152 ) ;
#13 = DIRECTION ( 'NONE',  ( 1.000000000000000000, 0.000000000000000000, 0.000000000000000000 ) ) ;
#14 =( NAMED_UNIT ( * ) PLANE_ANGLE_UNIT ( ) SI_UNIT ( $, .RADIAN. ) );
#15 = PERSON_AND_ORGANIZATION ( #10, #76 ) ;
#16 =( NAMED_UNIT ( * ) SI_UNIT ( $, .STERADIAN. ) SOLID_ANGLE_UNIT ( ) );
#17 = AXIS2_PLACEMENT_3D ( 'NONE', #52, #85, #56 ) ;
#18 = PERSON_AND_ORGANIZATION_ROLE ( 'design_owner' ) ;
#19 = CALENDAR_DATE ( 2021, 25, 2 ) ;
#20 = ADVANCED_FACE ( 'NONE', ( #81 ), #179, .F. ) ;
#21 = ORIENTED_EDGE ( 'NONE', *, *, #98, .T. ) ;
#22 = CIRCLE ( 'NONE', #62, 75.00000000000000000 ) ;
#23 = EDGE_LOOP ( 'NONE', ( #71, #97, #77, #21 ) ) ;
#24 =( GEOMETRIC_REPRESENTATION_CONTEXT ( 3 ) GLOBAL_UNCERTAINTY_ASSIGNED_CONTEXT ( ( #149 ) ) GLOBAL_UNIT_ASSIGNED_CONTEXT ( ( #43, #14, #16 ) ) REPRESENTATION_CONTEXT ( 'NONE', 'WORKASPACE' ) );
#25 = FACE_OUTER_BOUND ( 'NONE', #136, .T. ) ;
#26 = CARTESIAN_POINT ( 'NONE',  ( 6.349999999999999645, 7.776507174585692163E-16, 6.000000000000000000 ) ) ;
#27 = DIRECTION ( 'NONE',  ( 1.000000000000000000, 0.000000000000000000, 0.000000000000000000 ) ) ;
#28 = EDGE_CURVE ( 'NONE', #178, #68, #88, .T. ) ;
#29 = CARTESIAN_POINT ( 'NONE',  ( 0.000000000000000000, 0.000000000000000000, 0.000000000000000000 ) ) ;
#30 = AXIS2_PLACEMENT_3D ( 'NONE', #108, #172, #168 ) ;
#31 = APPROVAL_DATE_TIME ( #96, #78 ) ;
#32 = APPROVAL_DATE_TIME ( #175, #177 ) ;
#33 = COORDINATED_UNIVERSAL_TIME_OFFSET ( 2, 0, .AHEAD. ) ;
#34 = DATE_TIME_ROLE ( 'creation_date' ) ;
#35 = CC_DESIGN_DATE_AND_TIME_ASSIGNMENT ( #94, #34, ( #61 ) ) ;
#36 = VECTOR ( 'NONE', #38, 1000.000000000000000 ) ;
#37 = CLOSED_SHELL ( 'NONE', ( #42, #117, #200, #6, #20 ) ) ;
#38 = DIRECTION ( 'NONE',  ( -0.000000000000000000, -0.000000000000000000, -1.000000000000000000 ) ) ;
#39 = DIRECTION ( 'NONE',  ( -0.000000000000000000, -0.000000000000000000, -1.000000000000000000 ) ) ;
#40 = CARTESIAN_POINT ( 'NONE',  ( 1.586812809065182048E-14, 0.000000000000000000, 5.730699849526371459 ) ) ;
#41 = CARTESIAN_POINT ( 'NONE',  ( 1.127570259384924611E-14, 0.000000000000000000, 80.73069984952637412 ) ) ;
#42 = ADVANCED_FACE ( 'NONE', ( #124 ), #83, .F. ) ;
#43 =( LENGTH_UNIT ( ) NAMED_UNIT ( * ) SI_UNIT ( .MILLI., .METRE. ) );
#44 = CARTESIAN_POINT ( 'NONE',  ( 6.349999999999999645, 7.776507174585692163E-16, 0.000000000000000000 ) ) ;
#45 = CALENDAR_DATE ( 2021, 25, 2 ) ;
#46 = APPROVAL_ROLE ( '' ) ;
#47 = DATE_AND_TIME ( #184, #82 ) ;
#48 = APPROVAL ( #60, 'UNSPECIFIED' ) ;
#49 = DESIGN_CONTEXT ( 'detailed design', #54, 'design' ) ;
#50 = CC_DESIGN_SECURITY_CLASSIFICATION ( #176, ( #183 ) ) ;
#51 = CC_DESIGN_PERSON_AND_ORGANIZATION_ASSIGNMENT ( #187, #63, ( #61 ) ) ;
#52 = CARTESIAN_POINT ( 'NONE',  ( 0.000000000000000000, 0.000000000000000000, 0.000000000000000000 ) ) ;
#53 = DIRECTION ( 'NONE',  ( 1.000000000000000000, 0.000000000000000000, 0.000000000000000000 ) ) ;
#54 = APPLICATION_CONTEXT ( 'configuration controlled 3d designs of mechanical parts and assemblies' ) ;
#55 = CARTESIAN_POINT ( 'NONE',  ( 0.000000000000000000, 0.000000000000000000, 0.000000000000000000 ) ) ;
#56 = DIRECTION ( 'NONE',  ( 1.000000000000000000, 0.000000000000000000, -0.000000000000000000 ) ) ;
#57 = PERSON_AND_ORGANIZATION_ROLE ( 'classification_officer' ) ;
#58 = DIRECTION ( 'NONE',  ( 1.224646799147353207E-16, -1.000000000000000000, 0.000000000000000000 ) ) ;
#59 = PERSON_AND_ORGANIZATION_ROLE ( 'creator' ) ;
#60 = APPROVAL_STATUS ( 'not_yet_approved' ) ;
#61 = PRODUCT_DEFINITION ( 'UNKNOWN', '', #183, #49 ) ;
#62 = AXIS2_PLACEMENT_3D ( 'NONE', #73, #58, #90 ) ;
#63 = PERSON_AND_ORGANIZATION_ROLE ( 'creator' ) ;
#64 = ORIENTED_EDGE ( 'NONE', *, *, #98, .F. ) ;
#65 = ORIENTED_EDGE ( 'NONE', *, *, #185, .F. ) ;
#66 = LOCAL_TIME ( 10, 43, 40.00000000000000000, #189 ) ;
#67 = VERTEX_POINT ( 'NONE', #140 ) ;
#68 = VERTEX_POINT ( 'NONE', #195 ) ;
#69 = CARTESIAN_POINT ( 'NONE',  ( 1.127570259384924611E-14, 0.000000000000000000, 6.000000000000005329 ) ) ;
#70 = AXIS2_PLACEMENT_3D ( 'NONE', #69, #9, #155 ) ;
#71 = ORIENTED_EDGE ( 'NONE', *, *, #169, .F. ) ;
#72 = PRODUCT_DEFINITION_SHAPE ( 'NONE', 'NONE',  #61 ) ;
#73 = CARTESIAN_POINT ( 'NONE',  ( 1.127570259384924611E-14, 0.000000000000000000, 80.73069984952637412 ) ) ;
#74 = PERSON_AND_ORGANIZATION ( #10, #76 ) ;
#75 = PERSON_AND_ORGANIZATION ( #10, #76 ) ;
#76 = ORGANIZATION ( 'UNSPECIFIED', 'UNSPECIFIED', '' ) ;
#77 = ORIENTED_EDGE ( 'NONE', *, *, #113, .T. ) ;
#78 = APPROVAL ( #145, 'UNSPECIFIED' ) ;
#79 = ORIENTED_EDGE ( 'NONE', *, *, #80, .F. ) ;
#80 = EDGE_CURVE ( 'NONE', #11, #122, #127, .T. ) ;
#81 = FACE_OUTER_BOUND ( 'NONE', #192, .T. ) ;
#82 = LOCAL_TIME ( 10, 43, 40.00000000000000000, #33 ) ;
#83 = SPHERICAL_SURFACE ( 'NONE', #12, 75.00000000000000000 ) ;
#84 = AXIS2_PLACEMENT_3D ( 'NONE', #165, #154, #163 ) ;
#85 = DIRECTION ( 'NONE',  ( 0.000000000000000000, 0.000000000000000000, 1.000000000000000000 ) ) ;
#86 = CARTESIAN_POINT ( 'NONE',  ( -6.349999999999999645, 0.000000000000000000, 6.000000000000000000 ) ) ;
#87 = EDGE_LOOP ( 'NONE', ( #162, #115, #134, #190 ) ) ;
#88 = CIRCLE ( 'NONE', #196, 6.349999999999999645 ) ;
#89 = EDGE_CURVE ( 'NONE', #11, #67, #111, .T. ) ;
#90 = DIRECTION ( 'NONE',  ( 1.000000000000000000, 1.224646799147353207E-16, 0.000000000000000000 ) ) ;
#91 = DIRECTION ( 'NONE',  ( 0.000000000000000000, 0.000000000000000000, 1.000000000000000000 ) ) ;
#92 = PERSON_AND_ORGANIZATION ( #10, #76 ) ;
#93 = FACE_OUTER_BOUND ( 'NONE', #23, .T. ) ;
#94 = DATE_AND_TIME ( #19, #66 ) ;
#95 = DATE_TIME_ROLE ( 'classification_date' ) ;
#96 = DATE_AND_TIME ( #45, #143 ) ;
#97 = ORIENTED_EDGE ( 'NONE', *, *, #89, .T. ) ;
#98 = EDGE_CURVE ( 'NONE', #68, #178, #99, .T. ) ;
#99 = CIRCLE ( 'NONE', #3, 6.349999999999999645 ) ;
#100 = CYLINDRICAL_SURFACE ( 'NONE', #84, 6.349999999999999645 ) ;
#101 = DIRECTION ( 'NONE',  ( 0.000000000000000000, 0.000000000000000000, 1.000000000000000000 ) ) ;
#102 = CARTESIAN_POINT ( 'NONE',  ( 1.127570259384924611E-14, 0.000000000000000000, 6.000000000000005329 ) ) ;
#103 = DIRECTION ( 'NONE',  ( -0.000000000000000000, -0.000000000000000000, -1.000000000000000000 ) ) ;
#104 = DIRECTION ( 'NONE',  ( 0.000000000000000000, 1.000000000000000000, -0.000000000000000000 ) ) ;
#105 = EDGE_CURVE ( 'NONE', #67, #11, #161, .T. ) ;
#106 = APPROVAL_PERSON_ORGANIZATION ( #75, #177, #171 ) ;
#107 = PERSON_AND_ORGANIZATION ( #10, #76 ) ;
#108 = CARTESIAN_POINT ( 'NONE',  ( 0.000000000000000000, 0.000000000000000000, 6.000000000000000000 ) ) ;
#109 = DATE_AND_TIME ( #147, #123 ) ;
#110 = COORDINATED_UNIVERSAL_TIME_OFFSET ( 2, 0, .AHEAD. ) ;
#111 = CIRCLE ( 'NONE', #153, 6.350000000000028066 ) ;
#112 = APPLICATION_PROTOCOL_DEFINITION ( 'international standard', 'config_control_design', 1994, #54 ) ;
#113 = EDGE_CURVE ( 'NONE', #67, #68, #125, .T. ) ;
#114 = APPROVAL_PERSON_ORGANIZATION ( #74, #78, #186 ) ;
#115 = ORIENTED_EDGE ( 'NONE', *, *, #169, .T. ) ;
#116 = APPLICATION_CONTEXT ( 'configuration controlled 3d designs of mechanical parts and assemblies' ) ;
#117 = ADVANCED_FACE ( 'NONE', ( #120 ), #100, .T. ) ;
#118 = ORIENTED_EDGE ( 'NONE', *, *, #105, .F. ) ;
#119 = ORIENTED_EDGE ( 'NONE', *, *, #80, .T. ) ;
#120 = FACE_OUTER_BOUND ( 'NONE', #87, .T. ) ;
#121 = CC_DESIGN_PERSON_AND_ORGANIZATION_ASSIGNMENT ( #15, #57, ( #176 ) ) ;
#122 = VERTEX_POINT ( 'NONE', #40 ) ;
#123 = LOCAL_TIME ( 10, 43, 40.00000000000000000, #110 ) ;
#124 = FACE_OUTER_BOUND ( 'NONE', #159, .T. ) ;
#125 = LINE ( 'NONE', #86, #36 ) ;
#126 = CALENDAR_DATE ( 2021, 25, 2 ) ;
#127 = CIRCLE ( 'NONE', #193, 75.00000000000000000 ) ;
#128 = CYLINDRICAL_SURFACE ( 'NONE', #30, 6.349999999999999645 ) ;
#129 = COORDINATED_UNIVERSAL_TIME_OFFSET ( 2, 0, .AHEAD. ) ;
#130 = DIRECTION ( 'NONE',  ( 1.000000000000000000, 0.000000000000000000, 0.000000000000000000 ) ) ;
#131 = SECURITY_CLASSIFICATION_LEVEL ( 'unclassified' ) ;
#132 = AXIS2_PLACEMENT_3D ( 'NONE', #137, #141, #53 ) ;
#133 = APPROVAL_STATUS ( 'not_yet_approved' ) ;
#134 = ORIENTED_EDGE ( 'NONE', *, *, #28, .T. ) ;
#135 = MANIFOLD_SOLID_BREP ( 'Cut-Revolve1', #37 ) ;
#136 = EDGE_LOOP ( 'NONE', ( #64, #148 ) ) ;
#137 = CARTESIAN_POINT ( 'NONE',  ( 1.127570259384924611E-14, 0.000000000000000000, 80.73069984952637412 ) ) ;
#138 = LOCAL_TIME ( 10, 43, 40.00000000000000000, #1 ) ;
#139 = DIRECTION ( 'NONE',  ( 0.000000000000000000, -1.000000000000000000, -0.000000000000000000 ) ) ;
#140 = CARTESIAN_POINT ( 'NONE',  ( -6.350000000000017408, 0.000000000000000000, 6.000000000000005329 ) ) ;
#141 = DIRECTION ( 'NONE',  ( 0.000000000000000000, -1.000000000000000000, -0.000000000000000000 ) ) ;
#142 = PERSON_AND_ORGANIZATION_ROLE ( 'design_supplier' ) ;
#143 = LOCAL_TIME ( 10, 43, 40.00000000000000000, #129 ) ;
#144 = MECHANICAL_CONTEXT ( 'NONE', #116, 'mechanical' ) ;
#145 = APPROVAL_STATUS ( 'not_yet_approved' ) ;
#146 = CC_DESIGN_APPROVAL ( #78, ( #183 ) ) ;
#147 = CALENDAR_DATE ( 2021, 25, 2 ) ;
#148 = ORIENTED_EDGE ( 'NONE', *, *, #28, .F. ) ;
#149 = UNCERTAINTY_MEASURE_WITH_UNIT (LENGTH_MEASURE( 1.000000000000000082E-05 ), #43, 'distance_accuracy_value', 'NONE');
#150 = PRODUCT_RELATED_PRODUCT_CATEGORY ( 'detail', '', ( #198 ) ) ;
#151 = ADVANCED_BREP_SHAPE_REPRESENTATION ( '010-0104T6_N-BK7_PCV_window', ( #135, #8 ), #24 ) ;
#152 = DIRECTION ( 'NONE',  ( 1.000000000000000000, 0.000000000000000000, 0.000000000000000000 ) ) ;
#153 = AXIS2_PLACEMENT_3D ( 'NONE', #102, #103, #167 ) ;
#154 = DIRECTION ( 'NONE',  ( -0.000000000000000000, -0.000000000000000000, -1.000000000000000000 ) ) ;
#155 = DIRECTION ( 'NONE',  ( 1.000000000000000000, 0.000000000000000000, 0.000000000000000000 ) ) ;
#156 = APPLICATION_PROTOCOL_DEFINITION ( 'international standard', 'config_control_design', 1994, #116 ) ;
#157 = CC_DESIGN_PERSON_AND_ORGANIZATION_ASSIGNMENT ( #201, #142, ( #183 ) ) ;
#158 = PERSON_AND_ORGANIZATION ( #10, #76 ) ;
#159 = EDGE_LOOP ( 'NONE', ( #118, #7, #79 ) ) ;
#160 = CC_DESIGN_APPROVAL ( #177, ( #61 ) ) ;
#161 = CIRCLE ( 'NONE', #70, 6.350000000000028066 ) ;
#162 = ORIENTED_EDGE ( 'NONE', *, *, #105, .T. ) ;
#163 = DIRECTION ( 'NONE',  ( -1.000000000000000000, 0.000000000000000000, 0.000000000000000000 ) ) ;
#164 = CC_DESIGN_APPROVAL ( #48, ( #176 ) ) ;
#165 = CARTESIAN_POINT ( 'NONE',  ( 0.000000000000000000, 0.000000000000000000, 6.000000000000000000 ) ) ;
#166 = DIRECTION ( 'NONE',  ( 0.000000000000000000, 0.000000000000000000, 1.000000000000000000 ) ) ;
#167 = DIRECTION ( 'NONE',  ( 1.000000000000000000, 0.000000000000000000, 0.000000000000000000 ) ) ;
#168 = DIRECTION ( 'NONE',  ( -1.000000000000000000, 0.000000000000000000, 0.000000000000000000 ) ) ;
#169 = EDGE_CURVE ( 'NONE', #11, #178, #194, .T. ) ;
#170 = CARTESIAN_POINT ( 'NONE',  ( 0.000000000000000000, 0.000000000000000000, 0.000000000000000000 ) ) ;
#171 = APPROVAL_ROLE ( '' ) ;
#172 = DIRECTION ( 'NONE',  ( -0.000000000000000000, -0.000000000000000000, -1.000000000000000000 ) ) ;
#173 = APPROVAL_DATE_TIME ( #109, #48 ) ;
#174 = CC_DESIGN_PERSON_AND_ORGANIZATION_ASSIGNMENT ( #158, #59, ( #183 ) ) ;
#175 = DATE_AND_TIME ( #126, #138 ) ;
#176 = SECURITY_CLASSIFICATION ( '', '', #131 ) ;
#177 = APPROVAL ( #133, 'UNSPECIFIED' ) ;
#178 = VERTEX_POINT ( 'NONE', #44 ) ;
#179 = SPHERICAL_SURFACE ( 'NONE', #132, 75.00000000000000000 ) ;
#180 = CARTESIAN_POINT ( 'NONE',  ( 1.127570259384924611E-14, 0.000000000000000000, 80.73069984952637412 ) ) ;
#181 = PLANE ( 'NONE',  #17 ) ;
#182 = CC_DESIGN_PERSON_AND_ORGANIZATION_ASSIGNMENT ( #107, #18, ( #198 ) ) ;
#183 = PRODUCT_DEFINITION_FORMATION_WITH_SPECIFIED_SOURCE ( 'ANY', '', #198, .NOT_KNOWN. ) ;
#184 = CALENDAR_DATE ( 2021, 25, 2 ) ;
#185 = EDGE_CURVE ( 'NONE', #67, #122, #22, .T. ) ;
#186 = APPROVAL_ROLE ( '' ) ;
#187 = PERSON_AND_ORGANIZATION ( #10, #76 ) ;
#188 = VECTOR ( 'NONE', #39, 1000.000000000000000 ) ;
#189 = COORDINATED_UNIVERSAL_TIME_OFFSET ( 2, 0, .AHEAD. ) ;
#190 = ORIENTED_EDGE ( 'NONE', *, *, #113, .F. ) ;
#191 = CC_DESIGN_DATE_AND_TIME_ASSIGNMENT ( #47, #95, ( #176 ) ) ;
#192 = EDGE_LOOP ( 'NONE', ( #65, #4, #119 ) ) ;
#193 = AXIS2_PLACEMENT_3D ( 'NONE', #41, #104, #199 ) ;
#194 = LINE ( 'NONE', #26, #188 ) ;
#195 = CARTESIAN_POINT ( 'NONE',  ( -6.349999999999999645, 0.000000000000000000, 0.000000000000000000 ) ) ;
#196 = AXIS2_PLACEMENT_3D ( 'NONE', #55, #101, #13 ) ;
#197 = CARTESIAN_POINT ( 'NONE',  ( 6.350000000000039613, 7.776507174585740481E-16, 6.000000000000005329 ) ) ;
#198 = PRODUCT ( '010-0104T6_N-BK7_PCV_window', '010-0104T6_N-BK7_PCV_window', '', ( #144 ) ) ;
#199 = DIRECTION ( 'NONE',  ( 0.000000000000000000, 0.000000000000000000, 1.000000000000000000 ) ) ;
#200 = ADVANCED_FACE ( 'NONE', ( #93 ), #128, .T. ) ;
#201 = PERSON_AND_ORGANIZATION ( #10, #76 ) ;
ENDSEC;
END-ISO-10303-21;
