ISO-10303-21;
HEADER;
FILE_DESCRIPTION (( 'STEP AP203' ),
    '1' );
FILE_NAME ('010-0104E_N-BK7_PCV_window.STEP',
    '2021-02-25T08:15:04',
    ( '' ),
    ( '' ),
    'SwSTEP 2.0',
    'SolidWorks 2019',
    '' );
FILE_SCHEMA (( 'CONFIG_CONTROL_DESIGN' ));
ENDSEC;

DATA;
#1 = DIRECTION ( 'NONE',  ( 0.000000000000000000, 0.000000000000000000, 1.000000000000000000 ) ) ;
#2 = UNCERTAINTY_MEASURE_WITH_UNIT (LENGTH_MEASURE( 1.000000000000000082E-05 ), #129, 'distance_accuracy_value', 'NONE');
#3 = EDGE_CURVE ( 'NONE', #189, #52, #124, .T. ) ;
#4 = DATE_AND_TIME ( #140, #154 ) ;
#5 = DIRECTION ( 'NONE',  ( 1.000000000000000000, 0.000000000000000000, 0.000000000000000000 ) ) ;
#6 = PLANE ( 'NONE',  #55 ) ;
#7 = CARTESIAN_POINT ( 'NONE',  ( 0.000000000000000000, 0.000000000000000000, 3.000000000000000000 ) ) ;
#8 = DIRECTION ( 'NONE',  ( -0.000000000000000000, -0.000000000000000000, -1.000000000000000000 ) ) ;
#9 = APPROVAL ( #110, 'UNSPECIFIED' ) ;
#10 = ORIENTED_EDGE ( 'NONE', *, *, #169, .F. ) ;
#11 = EDGE_CURVE ( 'NONE', #52, #189, #34, .T. ) ;
#12 = VERTEX_POINT ( 'NONE', #106 ) ;
#13 = ORIENTED_EDGE ( 'NONE', *, *, #127, .T. ) ;
#14 = AXIS2_PLACEMENT_3D ( 'NONE', #7, #84, #113 ) ;
#15 = DIRECTION ( 'NONE',  ( -0.000000000000000000, -0.000000000000000000, -1.000000000000000000 ) ) ;
#16 = DATE_TIME_ROLE ( 'creation_date' ) ;
#17 =( GEOMETRIC_REPRESENTATION_CONTEXT ( 3 ) GLOBAL_UNCERTAINTY_ASSIGNED_CONTEXT ( ( #2 ) ) GLOBAL_UNIT_ASSIGNED_CONTEXT ( ( #129, #18, #81 ) ) REPRESENTATION_CONTEXT ( 'NONE', 'WORKASPACE' ) );
#18 =( NAMED_UNIT ( * ) PLANE_ANGLE_UNIT ( ) SI_UNIT ( $, .RADIAN. ) );
#19 = CARTESIAN_POINT ( 'NONE',  ( 0.000000000000000000, 0.000000000000000000, 0.000000000000000000 ) ) ;
#20 = DIRECTION ( 'NONE',  ( 0.000000000000000000, 0.000000000000000000, 1.000000000000000000 ) ) ;
#21 = COORDINATED_UNIVERSAL_TIME_OFFSET ( 2, 0, .AHEAD. ) ;
#22 = EDGE_CURVE ( 'NONE', #109, #37, #53, .T. ) ;
#23 = CARTESIAN_POINT ( 'NONE',  ( 0.000000000000000000, 0.000000000000000000, 0.000000000000000000 ) ) ;
#24 = DATE_AND_TIME ( #76, #161 ) ;
#25 = CARTESIAN_POINT ( 'NONE',  ( 6.349999999999999645, 7.776507174585692163E-16, 0.000000000000000000 ) ) ;
#26 = PERSON_AND_ORGANIZATION_ROLE ( 'design_owner' ) ;
#27 = MECHANICAL_CONTEXT ( 'NONE', #184, 'mechanical' ) ;
#28 = AXIS2_PLACEMENT_3D ( 'NONE', #66, #128, #96 ) ;
#29 = ORIENTED_EDGE ( 'NONE', *, *, #127, .F. ) ;
#30 = APPLICATION_PROTOCOL_DEFINITION ( 'international standard', 'config_control_design', 1994, #184 ) ;
#31 = FACE_OUTER_BOUND ( 'NONE', #117, .T. ) ;
#32 = ORGANIZATION ( 'UNSPECIFIED', 'UNSPECIFIED', '' ) ;
#33 = CARTESIAN_POINT ( 'NONE',  ( -6.349999999999999645, 0.000000000000000000, 0.000000000000000000 ) ) ;
#34 = CIRCLE ( 'NONE', #61, 6.349999999999999645 ) ;
#35 = ORIENTED_EDGE ( 'NONE', *, *, #22, .T. ) ;
#36 = CC_DESIGN_DATE_AND_TIME_ASSIGNMENT ( #171, #42, ( #74 ) ) ;
#37 = VERTEX_POINT ( 'NONE', #187 ) ;
#38 = COORDINATED_UNIVERSAL_TIME_OFFSET ( 2, 0, .AHEAD. ) ;
#39 = APPROVAL ( #192, 'UNSPECIFIED' ) ;
#40 = PERSON ( 'UNSPECIFIED', 'UNSPECIFIED', 'UNSPECIFIED', ('UNSPECIFIED'), ('UNSPECIFIED'), ('UNSPECIFIED') ) ;
#41 = DIRECTION ( 'NONE',  ( 1.224646799147353207E-16, -1.000000000000000000, 0.000000000000000000 ) ) ;
#42 = DATE_TIME_ROLE ( 'classification_date' ) ;
#43 = PRODUCT_DEFINITION_FORMATION_WITH_SPECIFIED_SOURCE ( 'ANY', '', #158, .NOT_KNOWN. ) ;
#44 = CARTESIAN_POINT ( 'NONE',  ( 0.000000000000000000, 0.000000000000000000, 0.000000000000000000 ) ) ;
#45 = CC_DESIGN_PERSON_AND_ORGANIZATION_ASSIGNMENT ( #165, #69, ( #43 ) ) ;
#46 = PERSON_AND_ORGANIZATION_ROLE ( 'creator' ) ;
#47 = PERSON_AND_ORGANIZATION ( #40, #32 ) ;
#48 = SPHERICAL_SURFACE ( 'NONE', #101, 75.00000000000000000 ) ;
#49 = DIRECTION ( 'NONE',  ( -0.000000000000000000, -0.000000000000000000, -1.000000000000000000 ) ) ;
#50 = DIRECTION ( 'NONE',  ( 1.000000000000000000, 0.000000000000000000, 0.000000000000000000 ) ) ;
#51 = FACE_OUTER_BOUND ( 'NONE', #100, .T. ) ;
#52 = VERTEX_POINT ( 'NONE', #25 ) ;
#53 = CIRCLE ( 'NONE', #166, 6.350000000000028066 ) ;
#54 = CC_DESIGN_PERSON_AND_ORGANIZATION_ASSIGNMENT ( #149, #138, ( #43 ) ) ;
#55 = AXIS2_PLACEMENT_3D ( 'NONE', #19, #20, #196 ) ;
#56 = EDGE_LOOP ( 'NONE', ( #137, #62, #13 ) ) ;
#57 = ORIENTED_EDGE ( 'NONE', *, *, #99, .T. ) ;
#58 = PERSON_AND_ORGANIZATION ( #40, #32 ) ;
#59 = DIRECTION ( 'NONE',  ( 1.000000000000000000, 0.000000000000000000, 0.000000000000000000 ) ) ;
#60 = APPROVAL_DATE_TIME ( #4, #9 ) ;
#61 = AXIS2_PLACEMENT_3D ( 'NONE', #44, #1, #59 ) ;
#62 = ORIENTED_EDGE ( 'NONE', *, *, #22, .F. ) ;
#63 = FACE_OUTER_BOUND ( 'NONE', #56, .T. ) ;
#64 = VECTOR ( 'NONE', #49, 1000.000000000000000 ) ;
#65 = CARTESIAN_POINT ( 'NONE',  ( 0.000000000000000000, 0.000000000000000000, 0.000000000000000000 ) ) ;
#66 = CARTESIAN_POINT ( 'NONE',  ( 1.127570259384924611E-14, 0.000000000000000000, 77.73069984952635991 ) ) ;
#67 = SPHERICAL_SURFACE ( 'NONE', #183, 75.00000000000000000 ) ;
#68 = ADVANCED_BREP_SHAPE_REPRESENTATION ( '010-0104E_N-BK7_PCV_window', ( #73, #93 ), #17 ) ;
#69 = PERSON_AND_ORGANIZATION_ROLE ( 'design_supplier' ) ;
#70 = SHAPE_DEFINITION_REPRESENTATION ( #115, #68 ) ;
#71 = AXIS2_PLACEMENT_3D ( 'NONE', #23, #85, #167 ) ;
#72 = CARTESIAN_POINT ( 'NONE',  ( -6.349999999999999645, 0.000000000000000000, 3.000000000000000000 ) ) ;
#73 = MANIFOLD_SOLID_BREP ( 'Cut-Revolve1', #159 ) ;
#74 = SECURITY_CLASSIFICATION ( '', '', #163 ) ;
#75 = CC_DESIGN_PERSON_AND_ORGANIZATION_ASSIGNMENT ( #133, #186, ( #74 ) ) ;
#76 = CALENDAR_DATE ( 2021, 25, 2 ) ;
#77 = AXIS2_PLACEMENT_3D ( 'NONE', #181, #8, #111 ) ;
#78 = CALENDAR_DATE ( 2021, 25, 2 ) ;
#79 = CC_DESIGN_PERSON_AND_ORGANIZATION_ASSIGNMENT ( #47, #26, ( #158 ) ) ;
#80 = COORDINATED_UNIVERSAL_TIME_OFFSET ( 2, 0, .AHEAD. ) ;
#81 =( NAMED_UNIT ( * ) SI_UNIT ( $, .STERADIAN. ) SOLID_ANGLE_UNIT ( ) );
#82 = CARTESIAN_POINT ( 'NONE',  ( 6.349999999999999645, 7.776507174585692163E-16, 3.000000000000000000 ) ) ;
#83 = EDGE_CURVE ( 'NONE', #37, #12, #190, .T. ) ;
#84 = DIRECTION ( 'NONE',  ( -0.000000000000000000, -0.000000000000000000, -1.000000000000000000 ) ) ;
#85 = DIRECTION ( 'NONE',  ( 0.000000000000000000, 0.000000000000000000, 1.000000000000000000 ) ) ;
#86 = CALENDAR_DATE ( 2021, 25, 2 ) ;
#87 = CARTESIAN_POINT ( 'NONE',  ( 6.350000000000039613, 7.776507174585740481E-16, 3.000000000000002665 ) ) ;
#88 = CARTESIAN_POINT ( 'NONE',  ( 1.127570259384924611E-14, 0.000000000000000000, 77.73069984952635991 ) ) ;
#89 = APPROVAL_DATE_TIME ( #24, #141 ) ;
#90 = CALENDAR_DATE ( 2021, 25, 2 ) ;
#91 = PERSON_AND_ORGANIZATION ( #40, #32 ) ;
#92 = COORDINATED_UNIVERSAL_TIME_OFFSET ( 2, 0, .AHEAD. ) ;
#93 = AXIS2_PLACEMENT_3D ( 'NONE', #65, #142, #5 ) ;
#94 = LOCAL_TIME ( 10, 15, 4.000000000000000000, #107 ) ;
#95 = FACE_OUTER_BOUND ( 'NONE', #102, .T. ) ;
#96 = DIRECTION ( 'NONE',  ( 0.000000000000000000, 0.000000000000000000, 1.000000000000000000 ) ) ;
#97 = DIRECTION ( 'NONE',  ( 0.000000000000000000, -1.000000000000000000, -0.000000000000000000 ) ) ;
#98 = LINE ( 'NONE', #82, #64 ) ;
#99 = EDGE_CURVE ( 'NONE', #37, #189, #148, .T. ) ;
#100 = EDGE_LOOP ( 'NONE', ( #10, #35, #57, #134 ) ) ;
#101 = AXIS2_PLACEMENT_3D ( 'NONE', #178, #97, #156 ) ;
#102 = EDGE_LOOP ( 'NONE', ( #160, #162, #29 ) ) ;
#103 = APPLICATION_CONTEXT ( 'configuration controlled 3d designs of mechanical parts and assemblies' ) ;
#104 = ORIENTED_EDGE ( 'NONE', *, *, #3, .F. ) ;
#105 = DIRECTION ( 'NONE',  ( -0.000000000000000000, -0.000000000000000000, -1.000000000000000000 ) ) ;
#106 = CARTESIAN_POINT ( 'NONE',  ( 1.586812809065182048E-14, 0.000000000000000000, 2.730699849526368794 ) ) ;
#107 = COORDINATED_UNIVERSAL_TIME_OFFSET ( 2, 0, .AHEAD. ) ;
#108 = APPROVAL_DATE_TIME ( #193, #39 ) ;
#109 = VERTEX_POINT ( 'NONE', #87 ) ;
#110 = APPROVAL_STATUS ( 'not_yet_approved' ) ;
#111 = DIRECTION ( 'NONE',  ( 1.000000000000000000, 0.000000000000000000, 0.000000000000000000 ) ) ;
#112 = CC_DESIGN_DATE_AND_TIME_ASSIGNMENT ( #153, #16, ( #191 ) ) ;
#113 = DIRECTION ( 'NONE',  ( -1.000000000000000000, 0.000000000000000000, 0.000000000000000000 ) ) ;
#114 = ADVANCED_FACE ( 'NONE', ( #31 ), #6, .F. ) ;
#115 = PRODUCT_DEFINITION_SHAPE ( 'NONE', 'NONE',  #191 ) ;
#116 = APPROVAL_PERSON_ORGANIZATION ( #58, #141, #168 ) ;
#117 = EDGE_LOOP ( 'NONE', ( #104, #120 ) ) ;
#118 = CARTESIAN_POINT ( 'NONE',  ( 1.127570259384924611E-14, 0.000000000000000000, 3.000000000000002665 ) ) ;
#119 = VECTOR ( 'NONE', #15, 1000.000000000000000 ) ;
#120 = ORIENTED_EDGE ( 'NONE', *, *, #11, .F. ) ;
#121 = APPROVAL_STATUS ( 'not_yet_approved' ) ;
#122 = CIRCLE ( 'NONE', #77, 6.350000000000028066 ) ;
#123 = CIRCLE ( 'NONE', #28, 75.00000000000000000 ) ;
#124 = CIRCLE ( 'NONE', #71, 6.349999999999999645 ) ;
#125 = APPLICATION_PROTOCOL_DEFINITION ( 'international standard', 'config_control_design', 1994, #103 ) ;
#126 = DIRECTION ( 'NONE',  ( -0.000000000000000000, -0.000000000000000000, -1.000000000000000000 ) ) ;
#127 = EDGE_CURVE ( 'NONE', #109, #12, #123, .T. ) ;
#128 = DIRECTION ( 'NONE',  ( 0.000000000000000000, 1.000000000000000000, -0.000000000000000000 ) ) ;
#129 =( LENGTH_UNIT ( ) NAMED_UNIT ( * ) SI_UNIT ( .MILLI., .METRE. ) );
#130 = ORIENTED_EDGE ( 'NONE', *, *, #11, .T. ) ;
#131 = ADVANCED_FACE ( 'NONE', ( #51 ), #198, .T. ) ;
#132 = LOCAL_TIME ( 10, 15, 4.000000000000000000, #38 ) ;
#133 = PERSON_AND_ORGANIZATION ( #40, #32 ) ;
#134 = ORIENTED_EDGE ( 'NONE', *, *, #3, .T. ) ;
#135 = DESIGN_CONTEXT ( 'detailed design', #103, 'design' ) ;
#136 = CC_DESIGN_SECURITY_CLASSIFICATION ( #74, ( #43 ) ) ;
#137 = ORIENTED_EDGE ( 'NONE', *, *, #83, .F. ) ;
#138 = PERSON_AND_ORGANIZATION_ROLE ( 'creator' ) ;
#139 = ORIENTED_EDGE ( 'NONE', *, *, #99, .F. ) ;
#140 = CALENDAR_DATE ( 2021, 25, 2 ) ;
#141 = APPROVAL ( #121, 'UNSPECIFIED' ) ;
#142 = DIRECTION ( 'NONE',  ( 0.000000000000000000, 0.000000000000000000, 1.000000000000000000 ) ) ;
#143 = CARTESIAN_POINT ( 'NONE',  ( 0.000000000000000000, 0.000000000000000000, 3.000000000000000000 ) ) ;
#144 = FACE_OUTER_BOUND ( 'NONE', #164, .T. ) ;
#145 = ADVANCED_FACE ( 'NONE', ( #95 ), #48, .F. ) ;
#146 = LOCAL_TIME ( 10, 15, 4.000000000000000000, #92 ) ;
#147 = PRODUCT_RELATED_PRODUCT_CATEGORY ( 'detail', '', ( #158 ) ) ;
#148 = LINE ( 'NONE', #72, #119 ) ;
#149 = PERSON_AND_ORGANIZATION ( #40, #32 ) ;
#150 = PERSON_AND_ORGANIZATION ( #40, #32 ) ;
#151 = APPROVAL_ROLE ( '' ) ;
#152 = DIRECTION ( 'NONE',  ( 1.000000000000000000, 1.224646799147353207E-16, 0.000000000000000000 ) ) ;
#153 = DATE_AND_TIME ( #78, #146 ) ;
#154 = LOCAL_TIME ( 10, 15, 4.000000000000000000, #80 ) ;
#155 = CYLINDRICAL_SURFACE ( 'NONE', #176, 6.349999999999999645 ) ;
#156 = DIRECTION ( 'NONE',  ( 1.000000000000000000, 0.000000000000000000, 0.000000000000000000 ) ) ;
#157 = DIRECTION ( 'NONE',  ( 0.000000000000000000, -1.000000000000000000, -0.000000000000000000 ) ) ;
#158 = PRODUCT ( '010-0104E_N-BK7_PCV_window', '010-0104E_N-BK7_PCV_window', '', ( #27 ) ) ;
#159 = CLOSED_SHELL ( 'NONE', ( #145, #182, #131, #114, #179 ) ) ;
#160 = ORIENTED_EDGE ( 'NONE', *, *, #199, .F. ) ;
#161 = LOCAL_TIME ( 10, 15, 4.000000000000000000, #21 ) ;
#162 = ORIENTED_EDGE ( 'NONE', *, *, #83, .T. ) ;
#163 = SECURITY_CLASSIFICATION_LEVEL ( 'unclassified' ) ;
#164 = EDGE_LOOP ( 'NONE', ( #185, #174, #130, #139 ) ) ;
#165 = PERSON_AND_ORGANIZATION ( #40, #32 ) ;
#166 = AXIS2_PLACEMENT_3D ( 'NONE', #118, #105, #170 ) ;
#167 = DIRECTION ( 'NONE',  ( 1.000000000000000000, 0.000000000000000000, 0.000000000000000000 ) ) ;
#168 = APPROVAL_ROLE ( '' ) ;
#169 = EDGE_CURVE ( 'NONE', #109, #52, #98, .T. ) ;
#170 = DIRECTION ( 'NONE',  ( 1.000000000000000000, 0.000000000000000000, 0.000000000000000000 ) ) ;
#171 = DATE_AND_TIME ( #86, #132 ) ;
#172 = CC_DESIGN_PERSON_AND_ORGANIZATION_ASSIGNMENT ( #173, #46, ( #191 ) ) ;
#173 = PERSON_AND_ORGANIZATION ( #40, #32 ) ;
#174 = ORIENTED_EDGE ( 'NONE', *, *, #169, .T. ) ;
#175 = APPROVAL_ROLE ( '' ) ;
#176 = AXIS2_PLACEMENT_3D ( 'NONE', #143, #126, #180 ) ;
#177 = CC_DESIGN_APPROVAL ( #39, ( #191 ) ) ;
#178 = CARTESIAN_POINT ( 'NONE',  ( 1.127570259384924611E-14, 0.000000000000000000, 77.73069984952635991 ) ) ;
#179 = ADVANCED_FACE ( 'NONE', ( #63 ), #67, .F. ) ;
#180 = DIRECTION ( 'NONE',  ( -1.000000000000000000, 0.000000000000000000, 0.000000000000000000 ) ) ;
#181 = CARTESIAN_POINT ( 'NONE',  ( 1.127570259384924611E-14, 0.000000000000000000, 3.000000000000002665 ) ) ;
#182 = ADVANCED_FACE ( 'NONE', ( #144 ), #155, .T. ) ;
#183 = AXIS2_PLACEMENT_3D ( 'NONE', #194, #157, #50 ) ;
#184 = APPLICATION_CONTEXT ( 'configuration controlled 3d designs of mechanical parts and assemblies' ) ;
#185 = ORIENTED_EDGE ( 'NONE', *, *, #199, .T. ) ;
#186 = PERSON_AND_ORGANIZATION_ROLE ( 'classification_officer' ) ;
#187 = CARTESIAN_POINT ( 'NONE',  ( -6.350000000000017408, 0.000000000000000000, 3.000000000000002665 ) ) ;
#188 = CC_DESIGN_APPROVAL ( #9, ( #43 ) ) ;
#189 = VERTEX_POINT ( 'NONE', #33 ) ;
#190 = CIRCLE ( 'NONE', #201, 75.00000000000000000 ) ;
#191 = PRODUCT_DEFINITION ( 'UNKNOWN', '', #43, #135 ) ;
#192 = APPROVAL_STATUS ( 'not_yet_approved' ) ;
#193 = DATE_AND_TIME ( #90, #94 ) ;
#194 = CARTESIAN_POINT ( 'NONE',  ( 1.127570259384924611E-14, 0.000000000000000000, 77.73069984952635991 ) ) ;
#195 = APPROVAL_PERSON_ORGANIZATION ( #91, #39, #151 ) ;
#196 = DIRECTION ( 'NONE',  ( 1.000000000000000000, 0.000000000000000000, -0.000000000000000000 ) ) ;
#197 = CC_DESIGN_APPROVAL ( #141, ( #74 ) ) ;
#198 = CYLINDRICAL_SURFACE ( 'NONE', #14, 6.349999999999999645 ) ;
#199 = EDGE_CURVE ( 'NONE', #37, #109, #122, .T. ) ;
#200 = APPROVAL_PERSON_ORGANIZATION ( #150, #9, #175 ) ;
#201 = AXIS2_PLACEMENT_3D ( 'NONE', #88, #41, #152 ) ;
ENDSEC;
END-ISO-10303-21;
