ISO-10303-21;
HEADER;
FILE_DESCRIPTION (( 'STEP AP203' ),
    '1' );
FILE_NAME ('010-0103T6_N-BK7_PCV_window.STEP',
    '2021-02-25T08:41:56',
    ( '' ),
    ( '' ),
    'SwSTEP 2.0',
    'SolidWorks 2019',
    '' );
FILE_SCHEMA (( 'CONFIG_CONTROL_DESIGN' ));
ENDSEC;

DATA;
#1 = AXIS2_PLACEMENT_3D ( 'NONE', #96, #109, #201 ) ;
#2 = MANIFOLD_SOLID_BREP ( 'Cut-Revolve1', #56 ) ;
#3 = PERSON_AND_ORGANIZATION ( #150, #14 ) ;
#4 = CALENDAR_DATE ( 2021, 25, 2 ) ;
#5 = APPROVAL_DATE_TIME ( #22, #115 ) ;
#6 = ORIENTED_EDGE ( 'NONE', *, *, #50, .T. ) ;
#7 = AXIS2_PLACEMENT_3D ( 'NONE', #44, #135, #33 ) ;
#8 = VERTEX_POINT ( 'NONE', #89 ) ;
#9 = PRODUCT ( '010-0103T6_N-BK7_PCV_window', '010-0103T6_N-BK7_PCV_window', '', ( #53 ) ) ;
#10 = DIRECTION ( 'NONE',  ( -1.000000000000000000, 0.000000000000000000, 0.000000000000000000 ) ) ;
#11 = VECTOR ( 'NONE', #196, 1000.000000000000000 ) ;
#12 = SPHERICAL_SURFACE ( 'NONE', #170, 50.00000000000000000 ) ;
#13 = CARTESIAN_POINT ( 'NONE',  ( 7.806255641895631925E-15, 0.000000000000000000, 55.59513585020208382 ) ) ;
#14 = ORGANIZATION ( 'UNSPECIFIED', 'UNSPECIFIED', '' ) ;
#15 = CARTESIAN_POINT ( 'NONE',  ( 7.806255641895631925E-15, 0.000000000000000000, 55.59513585020208382 ) ) ;
#16 = APPLICATION_CONTEXT ( 'configuration controlled 3d designs of mechanical parts and assemblies' ) ;
#17 = CALENDAR_DATE ( 2021, 25, 2 ) ;
#18 = COORDINATED_UNIVERSAL_TIME_OFFSET ( 2, 0, .AHEAD. ) ;
#19 = CC_DESIGN_PERSON_AND_ORGANIZATION_ASSIGNMENT ( #191, #37, ( #166 ) ) ;
#20 = PERSON_AND_ORGANIZATION_ROLE ( 'creator' ) ;
#21 = APPROVAL_PERSON_ORGANIZATION ( #127, #93, #159 ) ;
#22 = DATE_AND_TIME ( #113, #195 ) ;
#23 = CC_DESIGN_DATE_AND_TIME_ASSIGNMENT ( #190, #82, ( #85 ) ) ;
#24 = AXIS2_PLACEMENT_3D ( 'NONE', #90, #169, #64 ) ;
#25 = ADVANCED_FACE ( 'NONE', ( #198 ), #27, .T. ) ;
#26 = CIRCLE ( 'NONE', #76, 6.349999999999993427 ) ;
#27 = CYLINDRICAL_SURFACE ( 'NONE', #31, 6.349999999999999645 ) ;
#28 = EDGE_CURVE ( 'NONE', #164, #29, #73, .T. ) ;
#29 = VERTEX_POINT ( 'NONE', #74 ) ;
#30 =( LENGTH_UNIT ( ) NAMED_UNIT ( * ) SI_UNIT ( .MILLI., .METRE. ) );
#31 = AXIS2_PLACEMENT_3D ( 'NONE', #152, #62, #10 ) ;
#32 = PLANE ( 'NONE',  #24 ) ;
#33 = DIRECTION ( 'NONE',  ( 1.000000000000000000, 0.000000000000000000, 0.000000000000000000 ) ) ;
#34 = DATE_TIME_ROLE ( 'classification_date' ) ;
#35 = CC_DESIGN_PERSON_AND_ORGANIZATION_ASSIGNMENT ( #3, #20, ( #103 ) ) ;
#36 = AXIS2_PLACEMENT_3D ( 'NONE', #197, #158, #61 ) ;
#37 = PERSON_AND_ORGANIZATION_ROLE ( 'classification_officer' ) ;
#38 = EDGE_LOOP ( 'NONE', ( #154, #178 ) ) ;
#39 = CC_DESIGN_APPROVAL ( #115, ( #166 ) ) ;
#40 = ORIENTED_EDGE ( 'NONE', *, *, #117, .T. ) ;
#41 = UNCERTAINTY_MEASURE_WITH_UNIT (LENGTH_MEASURE( 1.000000000000000082E-05 ), #30, 'distance_accuracy_value', 'NONE');
#42 = PRODUCT_DEFINITION_SHAPE ( 'NONE', 'NONE',  #85 ) ;
#43 = CARTESIAN_POINT ( 'NONE',  ( 7.806255641895631925E-15, 0.000000000000000000, 5.999999999999998224 ) ) ;
#44 = CARTESIAN_POINT ( 'NONE',  ( 0.000000000000000000, 0.000000000000000000, 0.000000000000000000 ) ) ;
#45 = ORIENTED_EDGE ( 'NONE', *, *, #172, .F. ) ;
#46 = LOCAL_TIME ( 10, 41, 56.00000000000000000, #18 ) ;
#47 = CARTESIAN_POINT ( 'NONE',  ( 6.349999999999999645, 7.776507174585692163E-16, 0.000000000000000000 ) ) ;
#48 = ADVANCED_BREP_SHAPE_REPRESENTATION ( '010-0103T6_N-BK7_PCV_window', ( #2, #110 ), #99 ) ;
#49 = PERSON_AND_ORGANIZATION ( #150, #14 ) ;
#50 = EDGE_CURVE ( 'NONE', #29, #146, #133, .T. ) ;
#51 = APPROVAL_ROLE ( '' ) ;
#52 = APPROVAL_STATUS ( 'not_yet_approved' ) ;
#53 = MECHANICAL_CONTEXT ( 'NONE', #162, 'mechanical' ) ;
#54 = CC_DESIGN_APPROVAL ( #93, ( #85 ) ) ;
#55 = CC_DESIGN_PERSON_AND_ORGANIZATION_ASSIGNMENT ( #49, #100, ( #103 ) ) ;
#56 = CLOSED_SHELL ( 'NONE', ( #87, #25, #148, #157, #98 ) ) ;
#57 = ORIENTED_EDGE ( 'NONE', *, *, #199, .F. ) ;
#58 = DIRECTION ( 'NONE',  ( 1.000000000000000000, 0.000000000000000000, 0.000000000000000000 ) ) ;
#59 = DIRECTION ( 'NONE',  ( 0.000000000000000000, 0.000000000000000000, 1.000000000000000000 ) ) ;
#60 = FACE_OUTER_BOUND ( 'NONE', #147, .T. ) ;
#61 = DIRECTION ( 'NONE',  ( 1.000000000000000000, 1.224646799147353207E-16, 0.000000000000000000 ) ) ;
#62 = DIRECTION ( 'NONE',  ( -0.000000000000000000, -0.000000000000000000, -1.000000000000000000 ) ) ;
#63 = DIRECTION ( 'NONE',  ( 1.000000000000000000, 0.000000000000000000, 0.000000000000000000 ) ) ;
#64 = DIRECTION ( 'NONE',  ( 1.000000000000000000, 0.000000000000000000, -0.000000000000000000 ) ) ;
#65 = CC_DESIGN_PERSON_AND_ORGANIZATION_ASSIGNMENT ( #72, #70, ( #85 ) ) ;
#66 = DIRECTION ( 'NONE',  ( -0.000000000000000000, -0.000000000000000000, -1.000000000000000000 ) ) ;
#67 = APPROVAL_STATUS ( 'not_yet_approved' ) ;
#68 = COORDINATED_UNIVERSAL_TIME_OFFSET ( 2, 0, .AHEAD. ) ;
#69 = CC_DESIGN_SECURITY_CLASSIFICATION ( #166, ( #103 ) ) ;
#70 = PERSON_AND_ORGANIZATION_ROLE ( 'creator' ) ;
#71 = PERSON_AND_ORGANIZATION ( #150, #14 ) ;
#72 = PERSON_AND_ORGANIZATION ( #150, #14 ) ;
#73 = CIRCLE ( 'NONE', #155, 6.349999999999993427 ) ;
#74 = CARTESIAN_POINT ( 'NONE',  ( -6.349999999999985434, 0.000000000000000000, 5.999999999999998224 ) ) ;
#75 = CARTESIAN_POINT ( 'NONE',  ( -6.349999999999999645, 0.000000000000000000, 6.000000000000000000 ) ) ;
#76 = AXIS2_PLACEMENT_3D ( 'NONE', #173, #66, #153 ) ;
#77 = ORIENTED_EDGE ( 'NONE', *, *, #117, .F. ) ;
#78 = DIRECTION ( 'NONE',  ( -0.000000000000000000, -0.000000000000000000, -1.000000000000000000 ) ) ;
#79 = DIRECTION ( 'NONE',  ( 0.000000000000000000, -1.000000000000000000, -0.000000000000000000 ) ) ;
#80 = CIRCLE ( 'NONE', #122, 6.349999999999999645 ) ;
#81 = LINE ( 'NONE', #180, #188 ) ;
#82 = DATE_TIME_ROLE ( 'creation_date' ) ;
#83 = COORDINATED_UNIVERSAL_TIME_OFFSET ( 2, 0, .AHEAD. ) ;
#84 = COORDINATED_UNIVERSAL_TIME_OFFSET ( 2, 0, .AHEAD. ) ;
#85 = PRODUCT_DEFINITION ( 'UNKNOWN', '', #103, #132 ) ;
#86 = ORIENTED_EDGE ( 'NONE', *, *, #28, .F. ) ;
#87 = ADVANCED_FACE ( 'NONE', ( #60 ), #12, .F. ) ;
#88 = LOCAL_TIME ( 10, 41, 56.00000000000000000, #84 ) ;
#89 = CARTESIAN_POINT ( 'NONE',  ( 1.086787263976401378E-14, 0.000000000000000000, 5.595135850202083816 ) ) ;
#90 = CARTESIAN_POINT ( 'NONE',  ( 0.000000000000000000, 0.000000000000000000, 0.000000000000000000 ) ) ;
#91 = DIRECTION ( 'NONE',  ( -0.000000000000000000, -0.000000000000000000, -1.000000000000000000 ) ) ;
#92 =( NAMED_UNIT ( * ) PLANE_ANGLE_UNIT ( ) SI_UNIT ( $, .RADIAN. ) );
#93 = APPROVAL ( #97, 'UNSPECIFIED' ) ;
#94 = DIRECTION ( 'NONE',  ( 0.000000000000000000, 1.000000000000000000, -0.000000000000000000 ) ) ;
#95 = DIRECTION ( 'NONE',  ( 0.000000000000000000, 0.000000000000000000, 1.000000000000000000 ) ) ;
#96 = CARTESIAN_POINT ( 'NONE',  ( 0.000000000000000000, 0.000000000000000000, 6.000000000000000000 ) ) ;
#97 = APPROVAL_STATUS ( 'not_yet_approved' ) ;
#98 = ADVANCED_FACE ( 'NONE', ( #123 ), #179, .F. ) ;
#99 =( GEOMETRIC_REPRESENTATION_CONTEXT ( 3 ) GLOBAL_UNCERTAINTY_ASSIGNED_CONTEXT ( ( #41 ) ) GLOBAL_UNIT_ASSIGNED_CONTEXT ( ( #30, #92, #139 ) ) REPRESENTATION_CONTEXT ( 'NONE', 'WORKASPACE' ) );
#100 = PERSON_AND_ORGANIZATION_ROLE ( 'design_supplier' ) ;
#101 = ORIENTED_EDGE ( 'NONE', *, *, #192, .T. ) ;
#102 = ORIENTED_EDGE ( 'NONE', *, *, #172, .T. ) ;
#103 = PRODUCT_DEFINITION_FORMATION_WITH_SPECIFIED_SOURCE ( 'ANY', '', #9, .NOT_KNOWN. ) ;
#104 = ORIENTED_EDGE ( 'NONE', *, *, #199, .T. ) ;
#105 = DIRECTION ( 'NONE',  ( 0.000000000000000000, 0.000000000000000000, 1.000000000000000000 ) ) ;
#106 = CYLINDRICAL_SURFACE ( 'NONE', #1, 6.349999999999999645 ) ;
#107 = EDGE_CURVE ( 'NONE', #146, #194, #182, .T. ) ;
#108 = CIRCLE ( 'NONE', #140, 49.99999999999999289 ) ;
#109 = DIRECTION ( 'NONE',  ( -0.000000000000000000, -0.000000000000000000, -1.000000000000000000 ) ) ;
#110 = AXIS2_PLACEMENT_3D ( 'NONE', #174, #59, #168 ) ;
#111 = SHAPE_DEFINITION_REPRESENTATION ( #42, #48 ) ;
#112 = PRODUCT_RELATED_PRODUCT_CATEGORY ( 'detail', '', ( #9 ) ) ;
#113 = CALENDAR_DATE ( 2021, 25, 2 ) ;
#114 = DATE_AND_TIME ( #4, #46 ) ;
#115 = APPROVAL ( #52, 'UNSPECIFIED' ) ;
#116 = EDGE_LOOP ( 'NONE', ( #57, #193, #6, #136 ) ) ;
#117 = EDGE_CURVE ( 'NONE', #164, #8, #108, .T. ) ;
#118 = EDGE_LOOP ( 'NONE', ( #130, #86, #40 ) ) ;
#119 = DIRECTION ( 'NONE',  ( 0.000000000000000000, -1.000000000000000000, -0.000000000000000000 ) ) ;
#120 = DIRECTION ( 'NONE',  ( 1.000000000000000000, 0.000000000000000000, 0.000000000000000000 ) ) ;
#121 = CARTESIAN_POINT ( 'NONE',  ( -6.349999999999999645, 0.000000000000000000, 0.000000000000000000 ) ) ;
#122 = AXIS2_PLACEMENT_3D ( 'NONE', #200, #95, #156 ) ;
#123 = FACE_OUTER_BOUND ( 'NONE', #118, .T. ) ;
#124 = COORDINATED_UNIVERSAL_TIME_OFFSET ( 2, 0, .AHEAD. ) ;
#125 = APPROVAL_PERSON_ORGANIZATION ( #175, #115, #51 ) ;
#126 = PERSON_AND_ORGANIZATION ( #150, #14 ) ;
#127 = PERSON_AND_ORGANIZATION ( #150, #14 ) ;
#128 = APPROVAL_DATE_TIME ( #114, #185 ) ;
#129 = LOCAL_TIME ( 10, 41, 56.00000000000000000, #68 ) ;
#130 = ORIENTED_EDGE ( 'NONE', *, *, #192, .F. ) ;
#131 = LOCAL_TIME ( 10, 41, 56.00000000000000000, #83 ) ;
#132 = DESIGN_CONTEXT ( 'detailed design', #16, 'design' ) ;
#133 = LINE ( 'NONE', #75, #11 ) ;
#134 = CIRCLE ( 'NONE', #36, 50.00000000000000000 ) ;
#135 = DIRECTION ( 'NONE',  ( 0.000000000000000000, 0.000000000000000000, 1.000000000000000000 ) ) ;
#136 = ORIENTED_EDGE ( 'NONE', *, *, #107, .T. ) ;
#137 = APPLICATION_PROTOCOL_DEFINITION ( 'international standard', 'config_control_design', 1994, #162 ) ;
#138 = FACE_OUTER_BOUND ( 'NONE', #116, .T. ) ;
#139 =( NAMED_UNIT ( * ) SI_UNIT ( $, .STERADIAN. ) SOLID_ANGLE_UNIT ( ) );
#140 = AXIS2_PLACEMENT_3D ( 'NONE', #184, #94, #105 ) ;
#141 = APPROVAL_DATE_TIME ( #145, #93 ) ;
#142 = CC_DESIGN_PERSON_AND_ORGANIZATION_ASSIGNMENT ( #71, #143, ( #9 ) ) ;
#143 = PERSON_AND_ORGANIZATION_ROLE ( 'design_owner' ) ;
#144 = APPROVAL_PERSON_ORGANIZATION ( #126, #185, #187 ) ;
#145 = DATE_AND_TIME ( #17, #131 ) ;
#146 = VERTEX_POINT ( 'NONE', #121 ) ;
#147 = EDGE_LOOP ( 'NONE', ( #45, #101, #77 ) ) ;
#148 = ADVANCED_FACE ( 'NONE', ( #138 ), #106, .T. ) ;
#149 = ORIENTED_EDGE ( 'NONE', *, *, #50, .F. ) ;
#150 = PERSON ( 'UNSPECIFIED', 'UNSPECIFIED', 'UNSPECIFIED', ('UNSPECIFIED'), ('UNSPECIFIED'), ('UNSPECIFIED') ) ;
#151 = AXIS2_PLACEMENT_3D ( 'NONE', #15, #79, #120 ) ;
#152 = CARTESIAN_POINT ( 'NONE',  ( 0.000000000000000000, 0.000000000000000000, 6.000000000000000000 ) ) ;
#153 = DIRECTION ( 'NONE',  ( 1.000000000000000000, 0.000000000000000000, 0.000000000000000000 ) ) ;
#154 = ORIENTED_EDGE ( 'NONE', *, *, #107, .F. ) ;
#155 = AXIS2_PLACEMENT_3D ( 'NONE', #43, #91, #58 ) ;
#156 = DIRECTION ( 'NONE',  ( 1.000000000000000000, 0.000000000000000000, 0.000000000000000000 ) ) ;
#157 = ADVANCED_FACE ( 'NONE', ( #171 ), #32, .F. ) ;
#158 = DIRECTION ( 'NONE',  ( 1.224646799147353207E-16, -1.000000000000000000, 0.000000000000000000 ) ) ;
#159 = APPROVAL_ROLE ( '' ) ;
#160 = APPLICATION_PROTOCOL_DEFINITION ( 'international standard', 'config_control_design', 1994, #16 ) ;
#161 = CC_DESIGN_APPROVAL ( #185, ( #103 ) ) ;
#162 = APPLICATION_CONTEXT ( 'configuration controlled 3d designs of mechanical parts and assemblies' ) ;
#163 = DATE_AND_TIME ( #189, #129 ) ;
#164 = VERTEX_POINT ( 'NONE', #183 ) ;
#165 = ORIENTED_EDGE ( 'NONE', *, *, #177, .T. ) ;
#166 = SECURITY_CLASSIFICATION ( '', '', #176 ) ;
#167 = EDGE_LOOP ( 'NONE', ( #102, #104, #165, #149 ) ) ;
#168 = DIRECTION ( 'NONE',  ( 1.000000000000000000, 0.000000000000000000, 0.000000000000000000 ) ) ;
#169 = DIRECTION ( 'NONE',  ( 0.000000000000000000, 0.000000000000000000, 1.000000000000000000 ) ) ;
#170 = AXIS2_PLACEMENT_3D ( 'NONE', #13, #119, #63 ) ;
#171 = FACE_OUTER_BOUND ( 'NONE', #38, .T. ) ;
#172 = EDGE_CURVE ( 'NONE', #29, #164, #26, .T. ) ;
#173 = CARTESIAN_POINT ( 'NONE',  ( 7.806255641895631925E-15, 0.000000000000000000, 5.999999999999998224 ) ) ;
#174 = CARTESIAN_POINT ( 'NONE',  ( 0.000000000000000000, 0.000000000000000000, 0.000000000000000000 ) ) ;
#175 = PERSON_AND_ORGANIZATION ( #150, #14 ) ;
#176 = SECURITY_CLASSIFICATION_LEVEL ( 'unclassified' ) ;
#177 = EDGE_CURVE ( 'NONE', #194, #146, #80, .T. ) ;
#178 = ORIENTED_EDGE ( 'NONE', *, *, #177, .F. ) ;
#179 = SPHERICAL_SURFACE ( 'NONE', #151, 50.00000000000000000 ) ;
#180 = CARTESIAN_POINT ( 'NONE',  ( 6.349999999999999645, 7.776507174585692163E-16, 6.000000000000000000 ) ) ;
#181 = CC_DESIGN_DATE_AND_TIME_ASSIGNMENT ( #163, #34, ( #166 ) ) ;
#182 = CIRCLE ( 'NONE', #7, 6.349999999999999645 ) ;
#183 = CARTESIAN_POINT ( 'NONE',  ( 6.350000000000001421, 7.776507174585694135E-16, 5.999999999999998224 ) ) ;
#184 = CARTESIAN_POINT ( 'NONE',  ( 7.806255641895631925E-15, 0.000000000000000000, 55.59513585020208382 ) ) ;
#185 = APPROVAL ( #67, 'UNSPECIFIED' ) ;
#186 = CALENDAR_DATE ( 2021, 25, 2 ) ;
#187 = APPROVAL_ROLE ( '' ) ;
#188 = VECTOR ( 'NONE', #78, 1000.000000000000000 ) ;
#189 = CALENDAR_DATE ( 2021, 25, 2 ) ;
#190 = DATE_AND_TIME ( #186, #88 ) ;
#191 = PERSON_AND_ORGANIZATION ( #150, #14 ) ;
#192 = EDGE_CURVE ( 'NONE', #29, #8, #134, .T. ) ;
#193 = ORIENTED_EDGE ( 'NONE', *, *, #28, .T. ) ;
#194 = VERTEX_POINT ( 'NONE', #47 ) ;
#195 = LOCAL_TIME ( 10, 41, 56.00000000000000000, #124 ) ;
#196 = DIRECTION ( 'NONE',  ( -0.000000000000000000, -0.000000000000000000, -1.000000000000000000 ) ) ;
#197 = CARTESIAN_POINT ( 'NONE',  ( 7.806255641895631925E-15, 0.000000000000000000, 55.59513585020208382 ) ) ;
#198 = FACE_OUTER_BOUND ( 'NONE', #167, .T. ) ;
#199 = EDGE_CURVE ( 'NONE', #164, #194, #81, .T. ) ;
#200 = CARTESIAN_POINT ( 'NONE',  ( 0.000000000000000000, 0.000000000000000000, 0.000000000000000000 ) ) ;
#201 = DIRECTION ( 'NONE',  ( -1.000000000000000000, 0.000000000000000000, 0.000000000000000000 ) ) ;
ENDSEC;
END-ISO-10303-21;
