ISO-10303-21;
HEADER;
FILE_DESCRIPTION (( 'STEP AP203' ),
    '1' );
FILE_NAME ('010-0103E_N-BK7_PCV_window.STEP',
    '2021-02-25T08:14:09',
    ( '' ),
    ( '' ),
    'SwSTEP 2.0',
    'SolidWorks 2019',
    '' );
FILE_SCHEMA (( 'CONFIG_CONTROL_DESIGN' ));
ENDSEC;

DATA;
#1 = DATE_TIME_ROLE ( 'creation_date' ) ;
#2 = CALENDAR_DATE ( 2021, 25, 2 ) ;
#3 = CIRCLE ( 'NONE', #127, 6.350000000000028066 ) ;
#4 = APPROVAL_STATUS ( 'not_yet_approved' ) ;
#5 = PERSON ( 'UNSPECIFIED', 'UNSPECIFIED', 'UNSPECIFIED', ('UNSPECIFIED'), ('UNSPECIFIED'), ('UNSPECIFIED') ) ;
#6 = ORIENTED_EDGE ( 'NONE', *, *, #151, .T. ) ;
#7 = SECURITY_CLASSIFICATION ( '', '', #68 ) ;
#8 = ORIENTED_EDGE ( 'NONE', *, *, #171, .F. ) ;
#9 = EDGE_LOOP ( 'NONE', ( #8, #140, #23 ) ) ;
#10 = VERTEX_POINT ( 'NONE', #91 ) ;
#11 = FACE_OUTER_BOUND ( 'NONE', #49, .T. ) ;
#12 = SPHERICAL_SURFACE ( 'NONE', #175, 50.00000000000000711 ) ;
#13 = CARTESIAN_POINT ( 'NONE',  ( 0.000000000000000000, 0.000000000000000000, 3.000000000000000000 ) ) ;
#14 = FACE_OUTER_BOUND ( 'NONE', #194, .T. ) ;
#15 = DIRECTION ( 'NONE',  ( -0.000000000000000000, -0.000000000000000000, -1.000000000000000000 ) ) ;
#16 = CIRCLE ( 'NONE', #142, 6.350000000000028066 ) ;
#17 = APPROVAL_ROLE ( '' ) ;
#18 = MECHANICAL_CONTEXT ( 'NONE', #84, 'mechanical' ) ;
#19 = PERSON_AND_ORGANIZATION ( #5, #40 ) ;
#20 = ORIENTED_EDGE ( 'NONE', *, *, #80, .T. ) ;
#21 = COORDINATED_UNIVERSAL_TIME_OFFSET ( 2, 0, .AHEAD. ) ;
#22 = LOCAL_TIME ( 10, 14, 9.000000000000000000, #189 ) ;
#23 = ORIENTED_EDGE ( 'NONE', *, *, #56, .T. ) ;
#24 = DIRECTION ( 'NONE',  ( 1.000000000000000000, 0.000000000000000000, 0.000000000000000000 ) ) ;
#25 = UNCERTAINTY_MEASURE_WITH_UNIT (LENGTH_MEASURE( 1.000000000000000082E-05 ), #61, 'distance_accuracy_value', 'NONE');
#26 = ADVANCED_FACE ( 'NONE', ( #198 ), #12, .F. ) ;
#27 = AXIS2_PLACEMENT_3D ( 'NONE', #168, #29, #39 ) ;
#28 = FACE_OUTER_BOUND ( 'NONE', #184, .T. ) ;
#29 = DIRECTION ( 'NONE',  ( 0.000000000000000000, 0.000000000000000000, 1.000000000000000000 ) ) ;
#30 = DATE_AND_TIME ( #190, #178 ) ;
#31 = ADVANCED_FACE ( 'NONE', ( #11 ), #196, .T. ) ;
#32 = VERTEX_POINT ( 'NONE', #169 ) ;
#33 = PERSON_AND_ORGANIZATION_ROLE ( 'creator' ) ;
#34 = PERSON_AND_ORGANIZATION ( #5, #40 ) ;
#35 = CC_DESIGN_APPROVAL ( #104, ( #53 ) ) ;
#36 = PERSON_AND_ORGANIZATION ( #5, #40 ) ;
#37 = AXIS2_PLACEMENT_3D ( 'NONE', #111, #81, #122 ) ;
#38 = ADVANCED_FACE ( 'NONE', ( #28 ), #103, .F. ) ;
#39 = DIRECTION ( 'NONE',  ( 1.000000000000000000, 0.000000000000000000, 0.000000000000000000 ) ) ;
#40 = ORGANIZATION ( 'UNSPECIFIED', 'UNSPECIFIED', '' ) ;
#41 = VERTEX_POINT ( 'NONE', #94 ) ;
#42 = DIRECTION ( 'NONE',  ( -0.000000000000000000, -0.000000000000000000, -1.000000000000000000 ) ) ;
#43 = PRODUCT ( '010-0103E_N-BK7_PCV_window', '010-0103E_N-BK7_PCV_window', '', ( #18 ) ) ;
#44 = DIRECTION ( 'NONE',  ( 1.224646799147353207E-16, -1.000000000000000000, 0.000000000000000000 ) ) ;
#45 = DIRECTION ( 'NONE',  ( -1.000000000000000000, 0.000000000000000000, 0.000000000000000000 ) ) ;
#46 = LINE ( 'NONE', #141, #119 ) ;
#47 = CARTESIAN_POINT ( 'NONE',  ( 6.349999999999999645, 7.776507174585692163E-16, 3.000000000000000000 ) ) ;
#48 = CARTESIAN_POINT ( 'NONE',  ( 6.349999999999999645, 7.776507174585692163E-16, 0.000000000000000000 ) ) ;
#49 = EDGE_LOOP ( 'NONE', ( #166, #6, #105, #177 ) ) ;
#50 = LINE ( 'NONE', #47, #192 ) ;
#51 = VERTEX_POINT ( 'NONE', #76 ) ;
#52 = LOCAL_TIME ( 10, 14, 9.000000000000000000, #135 ) ;
#53 = PRODUCT_DEFINITION ( 'UNKNOWN', '', #101, #128 ) ;
#54 = APPLICATION_PROTOCOL_DEFINITION ( 'international standard', 'config_control_design', 1994, #84 ) ;
#55 = PERSON_AND_ORGANIZATION ( #5, #40 ) ;
#56 = EDGE_CURVE ( 'NONE', #32, #51, #181, .T. ) ;
#57 = APPROVAL_PERSON_ORGANIZATION ( #132, #191, #17 ) ;
#58 = LOCAL_TIME ( 10, 14, 9.000000000000000000, #113 ) ;
#59 = DIRECTION ( 'NONE',  ( 1.000000000000000000, 0.000000000000000000, 0.000000000000000000 ) ) ;
#60 = APPLICATION_CONTEXT ( 'configuration controlled 3d designs of mechanical parts and assemblies' ) ;
#61 =( LENGTH_UNIT ( ) NAMED_UNIT ( * ) SI_UNIT ( .MILLI., .METRE. ) );
#62 =( NAMED_UNIT ( * ) PLANE_ANGLE_UNIT ( ) SI_UNIT ( $, .RADIAN. ) );
#63 = CC_DESIGN_PERSON_AND_ORGANIZATION_ASSIGNMENT ( #66, #100, ( #101 ) ) ;
#64 = APPROVAL_ROLE ( '' ) ;
#65 = CC_DESIGN_PERSON_AND_ORGANIZATION_ASSIGNMENT ( #97, #161, ( #7 ) ) ;
#66 = PERSON_AND_ORGANIZATION ( #5, #40 ) ;
#67 =( GEOMETRIC_REPRESENTATION_CONTEXT ( 3 ) GLOBAL_UNCERTAINTY_ASSIGNED_CONTEXT ( ( #25 ) ) GLOBAL_UNIT_ASSIGNED_CONTEXT ( ( #61, #62, #179 ) ) REPRESENTATION_CONTEXT ( 'NONE', 'WORKASPACE' ) );
#68 = SECURITY_CLASSIFICATION_LEVEL ( 'unclassified' ) ;
#69 = PERSON_AND_ORGANIZATION ( #5, #40 ) ;
#70 = APPROVAL_PERSON_ORGANIZATION ( #34, #104, #112 ) ;
#71 = MANIFOLD_SOLID_BREP ( 'Cut-Revolve1', #157 ) ;
#72 = CC_DESIGN_PERSON_AND_ORGANIZATION_ASSIGNMENT ( #36, #185, ( #101 ) ) ;
#73 = CIRCLE ( 'NONE', #186, 6.349999999999999645 ) ;
#74 = ORIENTED_EDGE ( 'NONE', *, *, #137, .T. ) ;
#75 = VERTEX_POINT ( 'NONE', #48 ) ;
#76 = CARTESIAN_POINT ( 'NONE',  ( 1.086787263976401536E-14, 0.000000000000000000, 2.595135850202080707 ) ) ;
#77 = PRODUCT_RELATED_PRODUCT_CATEGORY ( 'detail', '', ( #43 ) ) ;
#78 = DIRECTION ( 'NONE',  ( 0.000000000000000000, -1.000000000000000000, -0.000000000000000000 ) ) ;
#79 = CARTESIAN_POINT ( 'NONE',  ( 7.806255641895631925E-15, 0.000000000000000000, 3.000000000000002665 ) ) ;
#80 = EDGE_CURVE ( 'NONE', #41, #75, #146, .T. ) ;
#81 = DIRECTION ( 'NONE',  ( -0.000000000000000000, -0.000000000000000000, -1.000000000000000000 ) ) ;
#82 = CALENDAR_DATE ( 2021, 25, 2 ) ;
#83 = ORIENTED_EDGE ( 'NONE', *, *, #182, .T. ) ;
#84 = APPLICATION_CONTEXT ( 'configuration controlled 3d designs of mechanical parts and assemblies' ) ;
#85 = PERSON_AND_ORGANIZATION_ROLE ( 'design_owner' ) ;
#86 = APPLICATION_PROTOCOL_DEFINITION ( 'international standard', 'config_control_design', 1994, #60 ) ;
#87 = ORIENTED_EDGE ( 'NONE', *, *, #56, .F. ) ;
#88 = CALENDAR_DATE ( 2021, 25, 2 ) ;
#89 = AXIS2_PLACEMENT_3D ( 'NONE', #13, #42, #45 ) ;
#90 = DIRECTION ( 'NONE',  ( -0.000000000000000000, -0.000000000000000000, -1.000000000000000000 ) ) ;
#91 = CARTESIAN_POINT ( 'NONE',  ( -6.350000000000020961, 0.000000000000000000, 3.000000000000002665 ) ) ;
#92 = DIRECTION ( 'NONE',  ( 0.000000000000000000, -1.000000000000000000, -0.000000000000000000 ) ) ;
#93 = CIRCLE ( 'NONE', #155, 50.00000000000000711 ) ;
#94 = CARTESIAN_POINT ( 'NONE',  ( -6.349999999999999645, 0.000000000000000000, 0.000000000000000000 ) ) ;
#95 = DATE_AND_TIME ( #174, #22 ) ;
#96 = CC_DESIGN_APPROVAL ( #191, ( #7 ) ) ;
#97 = PERSON_AND_ORGANIZATION ( #5, #40 ) ;
#98 = AXIS2_PLACEMENT_3D ( 'NONE', #154, #195, #201 ) ;
#99 = CC_DESIGN_PERSON_AND_ORGANIZATION_ASSIGNMENT ( #19, #85, ( #43 ) ) ;
#100 = PERSON_AND_ORGANIZATION_ROLE ( 'design_supplier' ) ;
#101 = PRODUCT_DEFINITION_FORMATION_WITH_SPECIFIED_SOURCE ( 'ANY', '', #43, .NOT_KNOWN. ) ;
#102 = ORIENTED_EDGE ( 'NONE', *, *, #139, .F. ) ;
#103 = SPHERICAL_SURFACE ( 'NONE', #200, 50.00000000000000711 ) ;
#104 = APPROVAL ( #149, 'UNSPECIFIED' ) ;
#105 = ORIENTED_EDGE ( 'NONE', *, *, #139, .T. ) ;
#106 = CARTESIAN_POINT ( 'NONE',  ( 7.806255641895631925E-15, 0.000000000000000000, 52.59513585020209092 ) ) ;
#107 = DIRECTION ( 'NONE',  ( -0.000000000000000000, -0.000000000000000000, -1.000000000000000000 ) ) ;
#108 = DIRECTION ( 'NONE',  ( 1.000000000000000000, 0.000000000000000000, 0.000000000000000000 ) ) ;
#109 = CARTESIAN_POINT ( 'NONE',  ( 7.806255641895631925E-15, 0.000000000000000000, 52.59513585020209092 ) ) ;
#110 = PRODUCT_DEFINITION_SHAPE ( 'NONE', 'NONE',  #53 ) ;
#111 = CARTESIAN_POINT ( 'NONE',  ( 0.000000000000000000, 0.000000000000000000, 3.000000000000000000 ) ) ;
#112 = APPROVAL_ROLE ( '' ) ;
#113 = COORDINATED_UNIVERSAL_TIME_OFFSET ( 2, 0, .AHEAD. ) ;
#114 = CC_DESIGN_PERSON_AND_ORGANIZATION_ASSIGNMENT ( #69, #33, ( #53 ) ) ;
#115 = SHAPE_DEFINITION_REPRESENTATION ( #110, #187 ) ;
#116 = APPROVAL_DATE_TIME ( #30, #104 ) ;
#117 = ADVANCED_FACE ( 'NONE', ( #145 ), #143, .F. ) ;
#118 = APPROVAL_DATE_TIME ( #95, #176 ) ;
#119 = VECTOR ( 'NONE', #107, 1000.000000000000000 ) ;
#120 = ORIENTED_EDGE ( 'NONE', *, *, #125, .F. ) ;
#121 = CC_DESIGN_SECURITY_CLASSIFICATION ( #7, ( #101 ) ) ;
#122 = DIRECTION ( 'NONE',  ( -1.000000000000000000, 0.000000000000000000, 0.000000000000000000 ) ) ;
#123 = CARTESIAN_POINT ( 'NONE',  ( 7.806255641895631925E-15, 0.000000000000000000, 52.59513585020209092 ) ) ;
#124 = DIRECTION ( 'NONE',  ( -0.000000000000000000, -0.000000000000000000, -1.000000000000000000 ) ) ;
#125 = EDGE_CURVE ( 'NONE', #10, #32, #3, .T. ) ;
#126 = DIRECTION ( 'NONE',  ( 0.000000000000000000, 1.000000000000000000, -0.000000000000000000 ) ) ;
#127 = AXIS2_PLACEMENT_3D ( 'NONE', #199, #124, #108 ) ;
#128 = DESIGN_CONTEXT ( 'detailed design', #60, 'design' ) ;
#129 = EDGE_LOOP ( 'NONE', ( #138, #102 ) ) ;
#130 = CARTESIAN_POINT ( 'NONE',  ( 7.806255641895631925E-15, 0.000000000000000000, 52.59513585020209092 ) ) ;
#131 = DATE_AND_TIME ( #82, #58 ) ;
#132 = PERSON_AND_ORGANIZATION ( #5, #40 ) ;
#133 = CARTESIAN_POINT ( 'NONE',  ( 0.000000000000000000, 0.000000000000000000, 0.000000000000000000 ) ) ;
#134 = DATE_AND_TIME ( #2, #52 ) ;
#135 = COORDINATED_UNIVERSAL_TIME_OFFSET ( 2, 0, .AHEAD. ) ;
#136 = AXIS2_PLACEMENT_3D ( 'NONE', #106, #126, #180 ) ;
#137 = EDGE_CURVE ( 'NONE', #10, #41, #46, .T. ) ;
#138 = ORIENTED_EDGE ( 'NONE', *, *, #80, .F. ) ;
#139 = EDGE_CURVE ( 'NONE', #75, #41, #73, .T. ) ;
#140 = ORIENTED_EDGE ( 'NONE', *, *, #182, .F. ) ;
#141 = CARTESIAN_POINT ( 'NONE',  ( -6.349999999999999645, 0.000000000000000000, 3.000000000000000000 ) ) ;
#142 = AXIS2_PLACEMENT_3D ( 'NONE', #79, #90, #24 ) ;
#143 = PLANE ( 'NONE',  #98 ) ;
#144 = DIRECTION ( 'NONE',  ( 1.000000000000000000, 0.000000000000000000, 0.000000000000000000 ) ) ;
#145 = FACE_OUTER_BOUND ( 'NONE', #129, .T. ) ;
#146 = CIRCLE ( 'NONE', #27, 6.349999999999999645 ) ;
#147 = DIRECTION ( 'NONE',  ( 1.000000000000000000, 1.224646799147353207E-16, 0.000000000000000000 ) ) ;
#148 = APPROVAL_DATE_TIME ( #131, #191 ) ;
#149 = APPROVAL_STATUS ( 'not_yet_approved' ) ;
#150 = COORDINATED_UNIVERSAL_TIME_OFFSET ( 2, 0, .AHEAD. ) ;
#151 = EDGE_CURVE ( 'NONE', #32, #75, #50, .T. ) ;
#152 = APPROVAL_PERSON_ORGANIZATION ( #55, #176, #64 ) ;
#153 = DIRECTION ( 'NONE',  ( 1.000000000000000000, 0.000000000000000000, 0.000000000000000000 ) ) ;
#154 = CARTESIAN_POINT ( 'NONE',  ( 0.000000000000000000, 0.000000000000000000, 0.000000000000000000 ) ) ;
#155 = AXIS2_PLACEMENT_3D ( 'NONE', #130, #44, #147 ) ;
#156 = DIRECTION ( 'NONE',  ( 0.000000000000000000, 0.000000000000000000, 1.000000000000000000 ) ) ;
#157 = CLOSED_SHELL ( 'NONE', ( #38, #31, #162, #117, #26 ) ) ;
#158 = DATE_TIME_ROLE ( 'classification_date' ) ;
#159 = DATE_AND_TIME ( #88, #163 ) ;
#160 = DIRECTION ( 'NONE',  ( 0.000000000000000000, 0.000000000000000000, 1.000000000000000000 ) ) ;
#161 = PERSON_AND_ORGANIZATION_ROLE ( 'classification_officer' ) ;
#162 = ADVANCED_FACE ( 'NONE', ( #14 ), #183, .T. ) ;
#163 = LOCAL_TIME ( 10, 14, 9.000000000000000000, #21 ) ;
#164 = ORIENTED_EDGE ( 'NONE', *, *, #151, .F. ) ;
#165 = CC_DESIGN_DATE_AND_TIME_ASSIGNMENT ( #159, #158, ( #7 ) ) ;
#166 = ORIENTED_EDGE ( 'NONE', *, *, #125, .T. ) ;
#167 = AXIS2_PLACEMENT_3D ( 'NONE', #133, #160, #172 ) ;
#168 = CARTESIAN_POINT ( 'NONE',  ( 0.000000000000000000, 0.000000000000000000, 0.000000000000000000 ) ) ;
#169 = CARTESIAN_POINT ( 'NONE',  ( 6.350000000000036060, 7.776507174585737522E-16, 3.000000000000002665 ) ) ;
#170 = CARTESIAN_POINT ( 'NONE',  ( 0.000000000000000000, 0.000000000000000000, 0.000000000000000000 ) ) ;
#171 = EDGE_CURVE ( 'NONE', #10, #51, #93, .T. ) ;
#172 = DIRECTION ( 'NONE',  ( 1.000000000000000000, 0.000000000000000000, 0.000000000000000000 ) ) ;
#173 = ORIENTED_EDGE ( 'NONE', *, *, #171, .T. ) ;
#174 = CALENDAR_DATE ( 2021, 25, 2 ) ;
#175 = AXIS2_PLACEMENT_3D ( 'NONE', #123, #92, #144 ) ;
#176 = APPROVAL ( #4, 'UNSPECIFIED' ) ;
#177 = ORIENTED_EDGE ( 'NONE', *, *, #137, .F. ) ;
#178 = LOCAL_TIME ( 10, 14, 9.000000000000000000, #150 ) ;
#179 =( NAMED_UNIT ( * ) SI_UNIT ( $, .STERADIAN. ) SOLID_ANGLE_UNIT ( ) );
#180 = DIRECTION ( 'NONE',  ( 0.000000000000000000, 0.000000000000000000, 1.000000000000000000 ) ) ;
#181 = CIRCLE ( 'NONE', #136, 50.00000000000001421 ) ;
#182 = EDGE_CURVE ( 'NONE', #32, #10, #16, .T. ) ;
#183 = CYLINDRICAL_SURFACE ( 'NONE', #37, 6.349999999999999645 ) ;
#184 = EDGE_LOOP ( 'NONE', ( #120, #173, #87 ) ) ;
#185 = PERSON_AND_ORGANIZATION_ROLE ( 'creator' ) ;
#186 = AXIS2_PLACEMENT_3D ( 'NONE', #170, #156, #59 ) ;
#187 = ADVANCED_BREP_SHAPE_REPRESENTATION ( '010-0103E_N-BK7_PCV_window', ( #71, #167 ), #67 ) ;
#188 = APPROVAL_STATUS ( 'not_yet_approved' ) ;
#189 = COORDINATED_UNIVERSAL_TIME_OFFSET ( 2, 0, .AHEAD. ) ;
#190 = CALENDAR_DATE ( 2021, 25, 2 ) ;
#191 = APPROVAL ( #188, 'UNSPECIFIED' ) ;
#192 = VECTOR ( 'NONE', #15, 1000.000000000000000 ) ;
#193 = CC_DESIGN_APPROVAL ( #176, ( #101 ) ) ;
#194 = EDGE_LOOP ( 'NONE', ( #164, #83, #74, #20 ) ) ;
#195 = DIRECTION ( 'NONE',  ( 0.000000000000000000, 0.000000000000000000, 1.000000000000000000 ) ) ;
#196 = CYLINDRICAL_SURFACE ( 'NONE', #89, 6.349999999999999645 ) ;
#197 = CC_DESIGN_DATE_AND_TIME_ASSIGNMENT ( #134, #1, ( #53 ) ) ;
#198 = FACE_OUTER_BOUND ( 'NONE', #9, .T. ) ;
#199 = CARTESIAN_POINT ( 'NONE',  ( 7.806255641895631925E-15, 0.000000000000000000, 3.000000000000002665 ) ) ;
#200 = AXIS2_PLACEMENT_3D ( 'NONE', #109, #78, #153 ) ;
#201 = DIRECTION ( 'NONE',  ( 1.000000000000000000, 0.000000000000000000, -0.000000000000000000 ) ) ;
ENDSEC;
END-ISO-10303-21;
