ISO-10303-21;
HEADER;
FILE_DESCRIPTION (( 'STEP AP203' ),
    '1' );
FILE_NAME ('010-0101T6_N-BK7_PCV_window.STEP',
    '2021-02-25T08:39:49',
    ( '' ),
    ( '' ),
    'SwSTEP 2.0',
    'SolidWorks 2019',
    '' );
FILE_SCHEMA (( 'CONFIG_CONTROL_DESIGN' ));
ENDSEC;

DATA;
#1 = DIRECTION ( 'NONE',  ( -0.000000000000000000, -0.000000000000000000, -1.000000000000000000 ) ) ;
#2 = PERSON_AND_ORGANIZATION ( #36, #62 ) ;
#3 = COORDINATED_UNIVERSAL_TIME_OFFSET ( 2, 0, .AHEAD. ) ;
#4 = APPROVAL_PERSON_ORGANIZATION ( #2, #146, #54 ) ;
#5 = COORDINATED_UNIVERSAL_TIME_OFFSET ( 2, 0, .AHEAD. ) ;
#6 = PERSON_AND_ORGANIZATION_ROLE ( 'creator' ) ;
#7 = CC_DESIGN_DATE_AND_TIME_ASSIGNMENT ( #24, #129, ( #187 ) ) ;
#8 = VECTOR ( 'NONE', #84, 1000.000000000000000 ) ;
#9 = EDGE_LOOP ( 'NONE', ( #165, #134 ) ) ;
#10 = EDGE_LOOP ( 'NONE', ( #102, #96, #77, #119 ) ) ;
#11 = CC_DESIGN_PERSON_AND_ORGANIZATION_ASSIGNMENT ( #44, #109, ( #180 ) ) ;
#12 = ORIENTED_EDGE ( 'NONE', *, *, #131, .T. ) ;
#13 = FACE_OUTER_BOUND ( 'NONE', #194, .T. ) ;
#14 = SPHERICAL_SURFACE ( 'NONE', #47, 25.00000000000000355 ) ;
#15 = CARTESIAN_POINT ( 'NONE',  ( 4.336808689942017736E-15, 0.000000000000000000, 30.18010545882710005 ) ) ;
#16 = DIRECTION ( 'NONE',  ( 1.000000000000000000, 0.000000000000000000, 0.000000000000000000 ) ) ;
#17 = FACE_OUTER_BOUND ( 'NONE', #116, .T. ) ;
#18 = LOCAL_TIME ( 10, 39, 49.00000000000000000, #71 ) ;
#19 = CC_DESIGN_PERSON_AND_ORGANIZATION_ASSIGNMENT ( #57, #130, ( #32 ) ) ;
#20 = DATE_TIME_ROLE ( 'classification_date' ) ;
#21 = AXIS2_PLACEMENT_3D ( 'NONE', #178, #124, #31 ) ;
#22 = CALENDAR_DATE ( 2021, 25, 2 ) ;
#23 = PERSON_AND_ORGANIZATION ( #36, #62 ) ;
#24 = DATE_AND_TIME ( #161, #177 ) ;
#25 = CARTESIAN_POINT ( 'NONE',  ( 0.000000000000000000, 0.000000000000000000, 0.000000000000000000 ) ) ;
#26 = LINE ( 'NONE', #67, #45 ) ;
#27 = VERTEX_POINT ( 'NONE', #107 ) ;
#28 = AXIS2_PLACEMENT_3D ( 'NONE', #166, #138, #49 ) ;
#29 = CARTESIAN_POINT ( 'NONE',  ( 0.000000000000000000, 0.000000000000000000, 0.000000000000000000 ) ) ;
#30 = CARTESIAN_POINT ( 'NONE',  ( -6.349999999999999645, 0.000000000000000000, 6.000000000000000000 ) ) ;
#31 = DIRECTION ( 'NONE',  ( 1.000000000000000000, 1.224646799147353207E-16, 0.000000000000000000 ) ) ;
#32 = PRODUCT_DEFINITION_FORMATION_WITH_SPECIFIED_SOURCE ( 'ANY', '', #180, .NOT_KNOWN. ) ;
#33 = APPROVAL_STATUS ( 'not_yet_approved' ) ;
#34 = APPROVAL_DATE_TIME ( #174, #118 ) ;
#35 = EDGE_LOOP ( 'NONE', ( #12, #193, #61, #75 ) ) ;
#36 = PERSON ( 'UNSPECIFIED', 'UNSPECIFIED', 'UNSPECIFIED', ('UNSPECIFIED'), ('UNSPECIFIED'), ('UNSPECIFIED') ) ;
#37 = AXIS2_PLACEMENT_3D ( 'NONE', #83, #170, #95 ) ;
#38 = ORIENTED_EDGE ( 'NONE', *, *, #106, .F. ) ;
#39 = VERTEX_POINT ( 'NONE', #65 ) ;
#40 = EDGE_CURVE ( 'NONE', #39, #27, #110, .T. ) ;
#41 = DIRECTION ( 'NONE',  ( -0.000000000000000000, -0.000000000000000000, -1.000000000000000000 ) ) ;
#42 = MECHANICAL_CONTEXT ( 'NONE', #154, 'mechanical' ) ;
#43 = CARTESIAN_POINT ( 'NONE',  ( 4.336808689942017736E-15, 0.000000000000000000, 5.999999999999998224 ) ) ;
#44 = PERSON_AND_ORGANIZATION ( #36, #62 ) ;
#45 = VECTOR ( 'NONE', #41, 1000.000000000000000 ) ;
#46 = EDGE_CURVE ( 'NONE', #39, #120, #26, .T. ) ;
#47 = AXIS2_PLACEMENT_3D ( 'NONE', #136, #63, #122 ) ;
#48 = CC_DESIGN_APPROVAL ( #118, ( #187 ) ) ;
#49 = DIRECTION ( 'NONE',  ( -1.000000000000000000, 0.000000000000000000, 0.000000000000000000 ) ) ;
#50 = DIRECTION ( 'NONE',  ( 1.000000000000000000, 0.000000000000000000, 0.000000000000000000 ) ) ;
#51 = CARTESIAN_POINT ( 'NONE',  ( 0.000000000000000000, 0.000000000000000000, 6.000000000000000000 ) ) ;
#52 = SECURITY_CLASSIFICATION_LEVEL ( 'unclassified' ) ;
#53 =( GEOMETRIC_REPRESENTATION_CONTEXT ( 3 ) GLOBAL_UNCERTAINTY_ASSIGNED_CONTEXT ( ( #66 ) ) GLOBAL_UNIT_ASSIGNED_CONTEXT ( ( #184, #112, #198 ) ) REPRESENTATION_CONTEXT ( 'NONE', 'WORKASPACE' ) );
#54 = APPROVAL_ROLE ( '' ) ;
#55 = ADVANCED_FACE ( 'NONE', ( #94 ), #197, .F. ) ;
#56 = APPROVAL_DATE_TIME ( #160, #146 ) ;
#57 = PERSON_AND_ORGANIZATION ( #36, #62 ) ;
#58 = ADVANCED_FACE ( 'NONE', ( #13 ), #14, .F. ) ;
#59 = ORIENTED_EDGE ( 'NONE', *, *, #106, .T. ) ;
#60 = CLOSED_SHELL ( 'NONE', ( #98, #183, #104, #55, #58 ) ) ;
#61 = ORIENTED_EDGE ( 'NONE', *, *, #128, .T. ) ;
#62 = ORGANIZATION ( 'UNSPECIFIED', 'UNSPECIFIED', '' ) ;
#63 = DIRECTION ( 'NONE',  ( 0.000000000000000000, -1.000000000000000000, -0.000000000000000000 ) ) ;
#64 = FACE_OUTER_BOUND ( 'NONE', #10, .T. ) ;
#65 = CARTESIAN_POINT ( 'NONE',  ( 6.350000000000006750, 7.776507174585701038E-16, 5.999999999999998224 ) ) ;
#66 = UNCERTAINTY_MEASURE_WITH_UNIT (LENGTH_MEASURE( 1.000000000000000082E-05 ), #184, 'distance_accuracy_value', 'NONE');
#67 = CARTESIAN_POINT ( 'NONE',  ( 6.349999999999999645, 7.776507174585692163E-16, 6.000000000000000000 ) ) ;
#68 = CARTESIAN_POINT ( 'NONE',  ( 4.336808689942017736E-15, 0.000000000000000000, 5.999999999999998224 ) ) ;
#69 = DIRECTION ( 'NONE',  ( 0.000000000000000000, -1.000000000000000000, -0.000000000000000000 ) ) ;
#70 = CARTESIAN_POINT ( 'NONE',  ( 0.000000000000000000, 0.000000000000000000, 0.000000000000000000 ) ) ;
#71 = COORDINATED_UNIVERSAL_TIME_OFFSET ( 2, 0, .AHEAD. ) ;
#72 = LOCAL_TIME ( 10, 39, 49.00000000000000000, #5 ) ;
#73 = APPROVAL_ROLE ( '' ) ;
#74 = CIRCLE ( 'NONE', #143, 6.349999999999999645 ) ;
#75 = ORIENTED_EDGE ( 'NONE', *, *, #115, .F. ) ;
#76 = ORIENTED_EDGE ( 'NONE', *, *, #131, .F. ) ;
#77 = ORIENTED_EDGE ( 'NONE', *, *, #115, .T. ) ;
#78 = PRODUCT_RELATED_PRODUCT_CATEGORY ( 'detail', '', ( #180 ) ) ;
#79 = SECURITY_CLASSIFICATION ( '', '', #52 ) ;
#80 = DIRECTION ( 'NONE',  ( 1.000000000000000000, 0.000000000000000000, -0.000000000000000000 ) ) ;
#81 = CARTESIAN_POINT ( 'NONE',  ( -6.349999999999999645, 0.000000000000000000, 0.000000000000000000 ) ) ;
#82 = CARTESIAN_POINT ( 'NONE',  ( 0.000000000000000000, 0.000000000000000000, 0.000000000000000000 ) ) ;
#83 = CARTESIAN_POINT ( 'NONE',  ( 4.336808689942017736E-15, 0.000000000000000000, 30.18010545882710005 ) ) ;
#84 = DIRECTION ( 'NONE',  ( -0.000000000000000000, -0.000000000000000000, -1.000000000000000000 ) ) ;
#85 = EDGE_CURVE ( 'NONE', #27, #93, #191, .T. ) ;
#86 = DIRECTION ( 'NONE',  ( 1.000000000000000000, 0.000000000000000000, 0.000000000000000000 ) ) ;
#87 = COORDINATED_UNIVERSAL_TIME_OFFSET ( 2, 0, .AHEAD. ) ;
#88 = PERSON_AND_ORGANIZATION ( #36, #62 ) ;
#89 = APPROVAL_PERSON_ORGANIZATION ( #190, #101, #144 ) ;
#90 = DATE_AND_TIME ( #22, #72 ) ;
#91 = SHAPE_DEFINITION_REPRESENTATION ( #135, #164 ) ;
#92 = CC_DESIGN_PERSON_AND_ORGANIZATION_ASSIGNMENT ( #100, #155, ( #187 ) ) ;
#93 = VERTEX_POINT ( 'NONE', #108 ) ;
#94 = FACE_OUTER_BOUND ( 'NONE', #9, .T. ) ;
#95 = DIRECTION ( 'NONE',  ( 0.000000000000000000, 0.000000000000000000, 1.000000000000000000 ) ) ;
#96 = ORIENTED_EDGE ( 'NONE', *, *, #40, .T. ) ;
#97 = SPHERICAL_SURFACE ( 'NONE', #157, 25.00000000000000355 ) ;
#98 = ADVANCED_FACE ( 'NONE', ( #17 ), #97, .F. ) ;
#99 = APPROVAL_STATUS ( 'not_yet_approved' ) ;
#100 = PERSON_AND_ORGANIZATION ( #36, #62 ) ;
#101 = APPROVAL ( #99, 'UNSPECIFIED' ) ;
#102 = ORIENTED_EDGE ( 'NONE', *, *, #46, .F. ) ;
#103 = LOCAL_TIME ( 10, 39, 49.00000000000000000, #132 ) ;
#104 = ADVANCED_FACE ( 'NONE', ( #64 ), #125, .T. ) ;
#105 = ORIENTED_EDGE ( 'NONE', *, *, #85, .F. ) ;
#106 = EDGE_CURVE ( 'NONE', #39, #93, #186, .T. ) ;
#107 = CARTESIAN_POINT ( 'NONE',  ( -6.349999999999997868, 0.000000000000000000, 5.999999999999998224 ) ) ;
#108 = CARTESIAN_POINT ( 'NONE',  ( 5.867617188876209455E-15, 0.000000000000000000, 5.180105458827095610 ) ) ;
#109 = PERSON_AND_ORGANIZATION_ROLE ( 'design_owner' ) ;
#110 = CIRCLE ( 'NONE', #163, 6.350000000000002309 ) ;
#111 = DIRECTION ( 'NONE',  ( -0.000000000000000000, -0.000000000000000000, -1.000000000000000000 ) ) ;
#112 =( NAMED_UNIT ( * ) PLANE_ANGLE_UNIT ( ) SI_UNIT ( $, .RADIAN. ) );
#113 = APPLICATION_PROTOCOL_DEFINITION ( 'international standard', 'config_control_design', 1994, #154 ) ;
#114 = PERSON_AND_ORGANIZATION ( #36, #62 ) ;
#115 = EDGE_CURVE ( 'NONE', #27, #195, #140, .T. ) ;
#116 = EDGE_LOOP ( 'NONE', ( #76, #133, #38 ) ) ;
#117 = CIRCLE ( 'NONE', #162, 6.350000000000002309 ) ;
#118 = APPROVAL ( #33, 'UNSPECIFIED' ) ;
#119 = ORIENTED_EDGE ( 'NONE', *, *, #192, .T. ) ;
#120 = VERTEX_POINT ( 'NONE', #200 ) ;
#121 = CC_DESIGN_APPROVAL ( #146, ( #32 ) ) ;
#122 = DIRECTION ( 'NONE',  ( 1.000000000000000000, 0.000000000000000000, 0.000000000000000000 ) ) ;
#123 = DIRECTION ( 'NONE',  ( 1.000000000000000000, 0.000000000000000000, 0.000000000000000000 ) ) ;
#124 = DIRECTION ( 'NONE',  ( 1.224646799147353207E-16, -1.000000000000000000, 0.000000000000000000 ) ) ;
#125 = CYLINDRICAL_SURFACE ( 'NONE', #28, 6.349999999999999645 ) ;
#126 = CC_DESIGN_PERSON_AND_ORGANIZATION_ASSIGNMENT ( #23, #6, ( #32 ) ) ;
#127 = CYLINDRICAL_SURFACE ( 'NONE', #145, 6.349999999999999645 ) ;
#128 = EDGE_CURVE ( 'NONE', #120, #195, #74, .T. ) ;
#129 = DATE_TIME_ROLE ( 'creation_date' ) ;
#130 = PERSON_AND_ORGANIZATION_ROLE ( 'design_supplier' ) ;
#131 = EDGE_CURVE ( 'NONE', #27, #39, #117, .T. ) ;
#132 = COORDINATED_UNIVERSAL_TIME_OFFSET ( 2, 0, .AHEAD. ) ;
#133 = ORIENTED_EDGE ( 'NONE', *, *, #85, .T. ) ;
#134 = ORIENTED_EDGE ( 'NONE', *, *, #128, .F. ) ;
#135 = PRODUCT_DEFINITION_SHAPE ( 'NONE', 'NONE',  #187 ) ;
#136 = CARTESIAN_POINT ( 'NONE',  ( 4.336808689942017736E-15, 0.000000000000000000, 30.18010545882710005 ) ) ;
#137 = DIRECTION ( 'NONE',  ( -0.000000000000000000, -0.000000000000000000, -1.000000000000000000 ) ) ;
#138 = DIRECTION ( 'NONE',  ( -0.000000000000000000, -0.000000000000000000, -1.000000000000000000 ) ) ;
#139 = CC_DESIGN_PERSON_AND_ORGANIZATION_ASSIGNMENT ( #88, #172, ( #79 ) ) ;
#140 = LINE ( 'NONE', #30, #8 ) ;
#141 = MANIFOLD_SOLID_BREP ( 'Cut-Revolve1', #60 ) ;
#142 = DIRECTION ( 'NONE',  ( 1.000000000000000000, 0.000000000000000000, 0.000000000000000000 ) ) ;
#143 = AXIS2_PLACEMENT_3D ( 'NONE', #82, #201, #86 ) ;
#144 = APPROVAL_ROLE ( '' ) ;
#145 = AXIS2_PLACEMENT_3D ( 'NONE', #51, #1, #148 ) ;
#146 = APPROVAL ( #185, 'UNSPECIFIED' ) ;
#147 = DIRECTION ( 'NONE',  ( 0.000000000000000000, 0.000000000000000000, 1.000000000000000000 ) ) ;
#148 = DIRECTION ( 'NONE',  ( -1.000000000000000000, 0.000000000000000000, 0.000000000000000000 ) ) ;
#149 = CC_DESIGN_SECURITY_CLASSIFICATION ( #79, ( #32 ) ) ;
#150 = AXIS2_PLACEMENT_3D ( 'NONE', #70, #171, #50 ) ;
#151 = ORIENTED_EDGE ( 'NONE', *, *, #40, .F. ) ;
#152 = DESIGN_CONTEXT ( 'detailed design', #181, 'design' ) ;
#153 = CIRCLE ( 'NONE', #150, 6.349999999999999645 ) ;
#154 = APPLICATION_CONTEXT ( 'configuration controlled 3d designs of mechanical parts and assemblies' ) ;
#155 = PERSON_AND_ORGANIZATION_ROLE ( 'creator' ) ;
#156 = CALENDAR_DATE ( 2021, 25, 2 ) ;
#157 = AXIS2_PLACEMENT_3D ( 'NONE', #15, #69, #16 ) ;
#158 = CC_DESIGN_APPROVAL ( #101, ( #79 ) ) ;
#159 = CALENDAR_DATE ( 2021, 25, 2 ) ;
#160 = DATE_AND_TIME ( #156, #18 ) ;
#161 = CALENDAR_DATE ( 2021, 25, 2 ) ;
#162 = AXIS2_PLACEMENT_3D ( 'NONE', #68, #111, #142 ) ;
#163 = AXIS2_PLACEMENT_3D ( 'NONE', #43, #137, #199 ) ;
#164 = ADVANCED_BREP_SHAPE_REPRESENTATION ( '010-0101T6_N-BK7_PCV_window', ( #141, #176 ), #53 ) ;
#165 = ORIENTED_EDGE ( 'NONE', *, *, #192, .F. ) ;
#166 = CARTESIAN_POINT ( 'NONE',  ( 0.000000000000000000, 0.000000000000000000, 6.000000000000000000 ) ) ;
#167 = APPLICATION_PROTOCOL_DEFINITION ( 'international standard', 'config_control_design', 1994, #181 ) ;
#168 = AXIS2_PLACEMENT_3D ( 'NONE', #25, #147, #80 ) ;
#169 = APPROVAL_PERSON_ORGANIZATION ( #114, #118, #73 ) ;
#170 = DIRECTION ( 'NONE',  ( 0.000000000000000000, 1.000000000000000000, -0.000000000000000000 ) ) ;
#171 = DIRECTION ( 'NONE',  ( 0.000000000000000000, 0.000000000000000000, 1.000000000000000000 ) ) ;
#172 = PERSON_AND_ORGANIZATION_ROLE ( 'classification_officer' ) ;
#173 = APPROVAL_DATE_TIME ( #90, #101 ) ;
#174 = DATE_AND_TIME ( #159, #175 ) ;
#175 = LOCAL_TIME ( 10, 39, 49.00000000000000000, #87 ) ;
#176 = AXIS2_PLACEMENT_3D ( 'NONE', #29, #196, #123 ) ;
#177 = LOCAL_TIME ( 10, 39, 49.00000000000000000, #3 ) ;
#178 = CARTESIAN_POINT ( 'NONE',  ( 4.336808689942017736E-15, 0.000000000000000000, 30.18010545882710005 ) ) ;
#179 = CC_DESIGN_DATE_AND_TIME_ASSIGNMENT ( #189, #20, ( #79 ) ) ;
#180 = PRODUCT ( '010-0101T6_N-BK7_PCV_window', '010-0101T6_N-BK7_PCV_window', '', ( #42 ) ) ;
#181 = APPLICATION_CONTEXT ( 'configuration controlled 3d designs of mechanical parts and assemblies' ) ;
#182 = FACE_OUTER_BOUND ( 'NONE', #35, .T. ) ;
#183 = ADVANCED_FACE ( 'NONE', ( #182 ), #127, .T. ) ;
#184 =( LENGTH_UNIT ( ) NAMED_UNIT ( * ) SI_UNIT ( .MILLI., .METRE. ) );
#185 = APPROVAL_STATUS ( 'not_yet_approved' ) ;
#186 = CIRCLE ( 'NONE', #37, 25.00000000000000711 ) ;
#187 = PRODUCT_DEFINITION ( 'UNKNOWN', '', #32, #152 ) ;
#188 = CALENDAR_DATE ( 2021, 25, 2 ) ;
#189 = DATE_AND_TIME ( #188, #103 ) ;
#190 = PERSON_AND_ORGANIZATION ( #36, #62 ) ;
#191 = CIRCLE ( 'NONE', #21, 25.00000000000000355 ) ;
#192 = EDGE_CURVE ( 'NONE', #195, #120, #153, .T. ) ;
#193 = ORIENTED_EDGE ( 'NONE', *, *, #46, .T. ) ;
#194 = EDGE_LOOP ( 'NONE', ( #105, #151, #59 ) ) ;
#195 = VERTEX_POINT ( 'NONE', #81 ) ;
#196 = DIRECTION ( 'NONE',  ( 0.000000000000000000, 0.000000000000000000, 1.000000000000000000 ) ) ;
#197 = PLANE ( 'NONE',  #168 ) ;
#198 =( NAMED_UNIT ( * ) SI_UNIT ( $, .STERADIAN. ) SOLID_ANGLE_UNIT ( ) );
#199 = DIRECTION ( 'NONE',  ( 1.000000000000000000, 0.000000000000000000, 0.000000000000000000 ) ) ;
#200 = CARTESIAN_POINT ( 'NONE',  ( 6.349999999999999645, 7.776507174585692163E-16, 0.000000000000000000 ) ) ;
#201 = DIRECTION ( 'NONE',  ( 0.000000000000000000, 0.000000000000000000, 1.000000000000000000 ) ) ;
ENDSEC;
END-ISO-10303-21;
