ISO-10303-21;
HEADER;
FILE_DESCRIPTION (( 'STEP AP203' ),
    '1' );
FILE_NAME ('010-0101E_N-BK7_PCV_window.STEP',
    '2021-02-25T08:12:46',
    ( '' ),
    ( '' ),
    'SwSTEP 2.0',
    'SolidWorks 2019',
    '' );
FILE_SCHEMA (( 'CONFIG_CONTROL_DESIGN' ));
ENDSEC;

DATA;
#1 = DATE_AND_TIME ( #3, #180 ) ;
#2 = AXIS2_PLACEMENT_3D ( 'NONE', #92, #63, #111 ) ;
#3 = CALENDAR_DATE ( 2021, 25, 2 ) ;
#4 = VECTOR ( 'NONE', #103, 1000.000000000000000 ) ;
#5 = SPHERICAL_SURFACE ( 'NONE', #201, 25.00000000000000000 ) ;
#6 = ORIENTED_EDGE ( 'NONE', *, *, #139, .T. ) ;
#7 = APPROVAL ( #61, 'UNSPECIFIED' ) ;
#8 = CARTESIAN_POINT ( 'NONE',  ( 0.000000000000000000, 0.000000000000000000, 3.000000000000000000 ) ) ;
#9 = ORIENTED_EDGE ( 'NONE', *, *, #14, .F. ) ;
#10 = CARTESIAN_POINT ( 'NONE',  ( -6.349999999999999645, 0.000000000000000000, 0.000000000000000000 ) ) ;
#11 = ORIENTED_EDGE ( 'NONE', *, *, #189, .F. ) ;
#12 = CARTESIAN_POINT ( 'NONE',  ( 4.336808689942017736E-15, 0.000000000000000000, 27.18010545882709650 ) ) ;
#13 = EDGE_LOOP ( 'NONE', ( #32, #193, #104, #45 ) ) ;
#14 = EDGE_CURVE ( 'NONE', #65, #164, #173, .T. ) ;
#15 = CALENDAR_DATE ( 2021, 25, 2 ) ;
#16 = PERSON_AND_ORGANIZATION ( #71, #136 ) ;
#17 = PERSON_AND_ORGANIZATION ( #71, #136 ) ;
#18 = AXIS2_PLACEMENT_3D ( 'NONE', #188, #53, #143 ) ;
#19 = APPROVAL ( #185, 'UNSPECIFIED' ) ;
#20 = CARTESIAN_POINT ( 'NONE',  ( -6.350000000000006750, 0.000000000000000000, 2.999999999999999112 ) ) ;
#21 = LINE ( 'NONE', #186, #147 ) ;
#22 = ORIENTED_EDGE ( 'NONE', *, *, #176, .F. ) ;
#23 = DIRECTION ( 'NONE',  ( 0.000000000000000000, -1.000000000000000000, -0.000000000000000000 ) ) ;
#24 = CIRCLE ( 'NONE', #83, 6.350000000000011191 ) ;
#25 = ORIENTED_EDGE ( 'NONE', *, *, #176, .T. ) ;
#26 = APPROVAL_DATE_TIME ( #42, #129 ) ;
#27 = UNCERTAINTY_MEASURE_WITH_UNIT (LENGTH_MEASURE( 1.000000000000000082E-05 ), #159, 'distance_accuracy_value', 'NONE');
#28 = EDGE_LOOP ( 'NONE', ( #9, #11, #192 ) ) ;
#29 = DIRECTION ( 'NONE',  ( 1.000000000000000000, 1.224646799147353207E-16, 0.000000000000000000 ) ) ;
#30 = EDGE_CURVE ( 'NONE', #133, #164, #67, .T. ) ;
#31 = PERSON_AND_ORGANIZATION_ROLE ( 'creator' ) ;
#32 = ORIENTED_EDGE ( 'NONE', *, *, #142, .F. ) ;
#33 = APPROVAL_DATE_TIME ( #166, #7 ) ;
#34 = CC_DESIGN_APPROVAL ( #7, ( #36 ) ) ;
#35 = PERSON_AND_ORGANIZATION ( #71, #136 ) ;
#36 = PRODUCT_DEFINITION ( 'UNKNOWN', '', #52, #153 ) ;
#37 = AXIS2_PLACEMENT_3D ( 'NONE', #107, #165, #29 ) ;
#38 = DIRECTION ( 'NONE',  ( 1.000000000000000000, 0.000000000000000000, 0.000000000000000000 ) ) ;
#39 = DIRECTION ( 'NONE',  ( 1.000000000000000000, 0.000000000000000000, 0.000000000000000000 ) ) ;
#40 = ORIENTED_EDGE ( 'NONE', *, *, #155, .F. ) ;
#41 = DIRECTION ( 'NONE',  ( -0.000000000000000000, -0.000000000000000000, -1.000000000000000000 ) ) ;
#42 = DATE_AND_TIME ( #106, #199 ) ;
#43 = ORIENTED_EDGE ( 'NONE', *, *, #14, .T. ) ;
#44 = COORDINATED_UNIVERSAL_TIME_OFFSET ( 2, 0, .AHEAD. ) ;
#45 = ORIENTED_EDGE ( 'NONE', *, *, #155, .T. ) ;
#46 = ADVANCED_BREP_SHAPE_REPRESENTATION ( '010-0101E_N-BK7_PCV_window', ( #137, #2 ), #121 ) ;
#47 = ORIENTED_EDGE ( 'NONE', *, *, #30, .F. ) ;
#48 = PERSON_AND_ORGANIZATION_ROLE ( 'classification_officer' ) ;
#49 = CC_DESIGN_APPROVAL ( #129, ( #52 ) ) ;
#50 = ADVANCED_FACE ( 'NONE', ( #127 ), #183, .F. ) ;
#51 = PERSON_AND_ORGANIZATION_ROLE ( 'creator' ) ;
#52 = PRODUCT_DEFINITION_FORMATION_WITH_SPECIFIED_SOURCE ( 'ANY', '', #64, .NOT_KNOWN. ) ;
#53 = DIRECTION ( 'NONE',  ( -0.000000000000000000, -0.000000000000000000, -1.000000000000000000 ) ) ;
#54 = DIRECTION ( 'NONE',  ( 0.000000000000000000, 0.000000000000000000, 1.000000000000000000 ) ) ;
#55 = FACE_OUTER_BOUND ( 'NONE', #135, .T. ) ;
#56 = CARTESIAN_POINT ( 'NONE',  ( 4.336808689942017736E-15, 0.000000000000000000, 27.18010545882709650 ) ) ;
#57 = CC_DESIGN_PERSON_AND_ORGANIZATION_ASSIGNMENT ( #35, #48, ( #59 ) ) ;
#58 = CARTESIAN_POINT ( 'NONE',  ( 6.349999999999999645, 7.776507174585692163E-16, 3.000000000000000000 ) ) ;
#59 = SECURITY_CLASSIFICATION ( '', '', #171 ) ;
#60 = ORIENTED_EDGE ( 'NONE', *, *, #142, .T. ) ;
#61 = APPROVAL_STATUS ( 'not_yet_approved' ) ;
#62 = ORIENTED_EDGE ( 'NONE', *, *, #139, .F. ) ;
#63 = DIRECTION ( 'NONE',  ( 0.000000000000000000, 0.000000000000000000, 1.000000000000000000 ) ) ;
#64 = PRODUCT ( '010-0101E_N-BK7_PCV_window', '010-0101E_N-BK7_PCV_window', '', ( #149 ) ) ;
#65 = VERTEX_POINT ( 'NONE', #20 ) ;
#66 = AXIS2_PLACEMENT_3D ( 'NONE', #8, #145, #130 ) ;
#67 = CIRCLE ( 'NONE', #76, 25.00000000000000000 ) ;
#68 = DIRECTION ( 'NONE',  ( 0.000000000000000000, 0.000000000000000000, 1.000000000000000000 ) ) ;
#69 = ADVANCED_FACE ( 'NONE', ( #102 ), #5, .F. ) ;
#70 = DIRECTION ( 'NONE',  ( -0.000000000000000000, -0.000000000000000000, -1.000000000000000000 ) ) ;
#71 = PERSON ( 'UNSPECIFIED', 'UNSPECIFIED', 'UNSPECIFIED', ('UNSPECIFIED'), ('UNSPECIFIED'), ('UNSPECIFIED') ) ;
#72 = DIRECTION ( 'NONE',  ( 0.000000000000000000, -1.000000000000000000, -0.000000000000000000 ) ) ;
#73 = CARTESIAN_POINT ( 'NONE',  ( 0.000000000000000000, 0.000000000000000000, 0.000000000000000000 ) ) ;
#74 = DIRECTION ( 'NONE',  ( 1.000000000000000000, 0.000000000000000000, 0.000000000000000000 ) ) ;
#75 = CC_DESIGN_PERSON_AND_ORGANIZATION_ASSIGNMENT ( #125, #108, ( #64 ) ) ;
#76 = AXIS2_PLACEMENT_3D ( 'NONE', #181, #196, #68 ) ;
#77 = CARTESIAN_POINT ( 'NONE',  ( 0.000000000000000000, 0.000000000000000000, 0.000000000000000000 ) ) ;
#78 = APPROVAL_ROLE ( '' ) ;
#79 = LOCAL_TIME ( 10, 12, 46.00000000000000000, #97 ) ;
#80 = ORIENTED_EDGE ( 'NONE', *, *, #170, .F. ) ;
#81 = DATE_AND_TIME ( #112, #79 ) ;
#82 = LOCAL_TIME ( 10, 12, 46.00000000000000000, #138 ) ;
#83 = AXIS2_PLACEMENT_3D ( 'NONE', #119, #174, #39 ) ;
#84 = PERSON_AND_ORGANIZATION ( #71, #136 ) ;
#85 = CARTESIAN_POINT ( 'NONE',  ( 5.867617188876208666E-15, 0.000000000000000000, 2.180105458827096054 ) ) ;
#86 = CC_DESIGN_SECURITY_CLASSIFICATION ( #59, ( #52 ) ) ;
#87 = CARTESIAN_POINT ( 'NONE',  ( 0.000000000000000000, 0.000000000000000000, 3.000000000000000000 ) ) ;
#88 = ADVANCED_FACE ( 'NONE', ( #144 ), #191, .T. ) ;
#89 = DIRECTION ( 'NONE',  ( 0.000000000000000000, 0.000000000000000000, 1.000000000000000000 ) ) ;
#90 = CARTESIAN_POINT ( 'NONE',  ( 6.349999999999999645, 7.776507174585692163E-16, 0.000000000000000000 ) ) ;
#91 = AXIS2_PLACEMENT_3D ( 'NONE', #12, #23, #38 ) ;
#92 = CARTESIAN_POINT ( 'NONE',  ( 0.000000000000000000, 0.000000000000000000, 0.000000000000000000 ) ) ;
#93 = CIRCLE ( 'NONE', #115, 6.349999999999999645 ) ;
#94 = DATE_AND_TIME ( #15, #128 ) ;
#95 = CC_DESIGN_PERSON_AND_ORGANIZATION_ASSIGNMENT ( #17, #96, ( #52 ) ) ;
#96 = PERSON_AND_ORGANIZATION_ROLE ( 'design_supplier' ) ;
#97 = COORDINATED_UNIVERSAL_TIME_OFFSET ( 2, 0, .AHEAD. ) ;
#98 = DATE_TIME_ROLE ( 'classification_date' ) ;
#99 = EDGE_LOOP ( 'NONE', ( #25, #60, #6, #80 ) ) ;
#100 = APPROVAL_PERSON_ORGANIZATION ( #152, #7, #78 ) ;
#101 = CC_DESIGN_DATE_AND_TIME_ASSIGNMENT ( #81, #98, ( #59 ) ) ;
#102 = FACE_OUTER_BOUND ( 'NONE', #28, .T. ) ;
#103 = DIRECTION ( 'NONE',  ( -0.000000000000000000, -0.000000000000000000, -1.000000000000000000 ) ) ;
#104 = ORIENTED_EDGE ( 'NONE', *, *, #170, .T. ) ;
#105 = APPLICATION_PROTOCOL_DEFINITION ( 'international standard', 'config_control_design', 1994, #151 ) ;
#106 = CALENDAR_DATE ( 2021, 25, 2 ) ;
#107 = CARTESIAN_POINT ( 'NONE',  ( 4.336808689942017736E-15, 0.000000000000000000, 27.18010545882709650 ) ) ;
#108 = PERSON_AND_ORGANIZATION_ROLE ( 'design_owner' ) ;
#109 = VERTEX_POINT ( 'NONE', #90 ) ;
#110 = ADVANCED_FACE ( 'NONE', ( #55 ), #187, .F. ) ;
#111 = DIRECTION ( 'NONE',  ( 1.000000000000000000, 0.000000000000000000, 0.000000000000000000 ) ) ;
#112 = CALENDAR_DATE ( 2021, 25, 2 ) ;
#113 = AXIS2_PLACEMENT_3D ( 'NONE', #73, #54, #177 ) ;
#114 = COORDINATED_UNIVERSAL_TIME_OFFSET ( 2, 0, .AHEAD. ) ;
#115 = AXIS2_PLACEMENT_3D ( 'NONE', #116, #89, #74 ) ;
#116 = CARTESIAN_POINT ( 'NONE',  ( 0.000000000000000000, 0.000000000000000000, 0.000000000000000000 ) ) ;
#117 = CC_DESIGN_PERSON_AND_ORGANIZATION_ASSIGNMENT ( #184, #51, ( #52 ) ) ;
#118 = APPROVAL_PERSON_ORGANIZATION ( #195, #129, #197 ) ;
#119 = CARTESIAN_POINT ( 'NONE',  ( 4.336808689942017736E-15, 0.000000000000000000, 2.999999999999999112 ) ) ;
#120 = FACE_OUTER_BOUND ( 'NONE', #13, .T. ) ;
#121 =( GEOMETRIC_REPRESENTATION_CONTEXT ( 3 ) GLOBAL_UNCERTAINTY_ASSIGNED_CONTEXT ( ( #27 ) ) GLOBAL_UNIT_ASSIGNED_CONTEXT ( ( #159, #123, #150 ) ) REPRESENTATION_CONTEXT ( 'NONE', 'WORKASPACE' ) );
#122 = COORDINATED_UNIVERSAL_TIME_OFFSET ( 2, 0, .AHEAD. ) ;
#123 =( NAMED_UNIT ( * ) PLANE_ANGLE_UNIT ( ) SI_UNIT ( $, .RADIAN. ) );
#124 = EDGE_LOOP ( 'NONE', ( #22, #43, #47 ) ) ;
#125 = PERSON_AND_ORGANIZATION ( #71, #136 ) ;
#126 = ADVANCED_FACE ( 'NONE', ( #120 ), #160, .T. ) ;
#127 = FACE_OUTER_BOUND ( 'NONE', #124, .T. ) ;
#128 = LOCAL_TIME ( 10, 12, 46.00000000000000000, #122 ) ;
#129 = APPROVAL ( #179, 'UNSPECIFIED' ) ;
#130 = DIRECTION ( 'NONE',  ( -1.000000000000000000, 0.000000000000000000, 0.000000000000000000 ) ) ;
#131 = CARTESIAN_POINT ( 'NONE',  ( 6.350000000000015632, 7.776507174585711884E-16, 2.999999999999999112 ) ) ;
#132 = DIRECTION ( 'NONE',  ( 1.000000000000000000, 0.000000000000000000, 0.000000000000000000 ) ) ;
#133 = VERTEX_POINT ( 'NONE', #131 ) ;
#134 = LINE ( 'NONE', #58, #4 ) ;
#135 = EDGE_LOOP ( 'NONE', ( #40, #62 ) ) ;
#136 = ORGANIZATION ( 'UNSPECIFIED', 'UNSPECIFIED', '' ) ;
#137 = MANIFOLD_SOLID_BREP ( 'Cut-Revolve1', #148 ) ;
#138 = COORDINATED_UNIVERSAL_TIME_OFFSET ( 2, 0, .AHEAD. ) ;
#139 = EDGE_CURVE ( 'NONE', #109, #146, #190, .T. ) ;
#140 = AXIS2_PLACEMENT_3D ( 'NONE', #87, #41, #162 ) ;
#141 = APPLICATION_PROTOCOL_DEFINITION ( 'international standard', 'config_control_design', 1994, #154 ) ;
#142 = EDGE_CURVE ( 'NONE', #133, #109, #134, .T. ) ;
#143 = DIRECTION ( 'NONE',  ( 1.000000000000000000, 0.000000000000000000, 0.000000000000000000 ) ) ;
#144 = FACE_OUTER_BOUND ( 'NONE', #99, .T. ) ;
#145 = DIRECTION ( 'NONE',  ( -0.000000000000000000, -0.000000000000000000, -1.000000000000000000 ) ) ;
#146 = VERTEX_POINT ( 'NONE', #10 ) ;
#147 = VECTOR ( 'NONE', #70, 1000.000000000000000 ) ;
#148 = CLOSED_SHELL ( 'NONE', ( #50, #88, #126, #110, #69 ) ) ;
#149 = MECHANICAL_CONTEXT ( 'NONE', #151, 'mechanical' ) ;
#150 =( NAMED_UNIT ( * ) SI_UNIT ( $, .STERADIAN. ) SOLID_ANGLE_UNIT ( ) );
#151 = APPLICATION_CONTEXT ( 'configuration controlled 3d designs of mechanical parts and assemblies' ) ;
#152 = PERSON_AND_ORGANIZATION ( #71, #136 ) ;
#153 = DESIGN_CONTEXT ( 'detailed design', #154, 'design' ) ;
#154 = APPLICATION_CONTEXT ( 'configuration controlled 3d designs of mechanical parts and assemblies' ) ;
#155 = EDGE_CURVE ( 'NONE', #146, #109, #93, .T. ) ;
#156 = APPROVAL_ROLE ( '' ) ;
#157 = DIRECTION ( 'NONE',  ( 0.000000000000000000, 0.000000000000000000, 1.000000000000000000 ) ) ;
#158 = CC_DESIGN_APPROVAL ( #19, ( #59 ) ) ;
#159 =( LENGTH_UNIT ( ) NAMED_UNIT ( * ) SI_UNIT ( .MILLI., .METRE. ) );
#160 = CYLINDRICAL_SURFACE ( 'NONE', #140, 6.349999999999999645 ) ;
#161 = CC_DESIGN_DATE_AND_TIME_ASSIGNMENT ( #94, #200, ( #36 ) ) ;
#162 = DIRECTION ( 'NONE',  ( -1.000000000000000000, 0.000000000000000000, 0.000000000000000000 ) ) ;
#163 = PRODUCT_DEFINITION_SHAPE ( 'NONE', 'NONE',  #36 ) ;
#164 = VERTEX_POINT ( 'NONE', #85 ) ;
#165 = DIRECTION ( 'NONE',  ( 1.224646799147353207E-16, -1.000000000000000000, 0.000000000000000000 ) ) ;
#166 = DATE_AND_TIME ( #167, #82 ) ;
#167 = CALENDAR_DATE ( 2021, 25, 2 ) ;
#168 = SHAPE_DEFINITION_REPRESENTATION ( #163, #46 ) ;
#169 = APPROVAL_PERSON_ORGANIZATION ( #84, #19, #156 ) ;
#170 = EDGE_CURVE ( 'NONE', #65, #146, #21, .T. ) ;
#171 = SECURITY_CLASSIFICATION_LEVEL ( 'unclassified' ) ;
#172 = APPROVAL_DATE_TIME ( #1, #19 ) ;
#173 = CIRCLE ( 'NONE', #37, 25.00000000000000000 ) ;
#174 = DIRECTION ( 'NONE',  ( -0.000000000000000000, -0.000000000000000000, -1.000000000000000000 ) ) ;
#175 = DIRECTION ( 'NONE',  ( 1.000000000000000000, 0.000000000000000000, 0.000000000000000000 ) ) ;
#176 = EDGE_CURVE ( 'NONE', #65, #133, #194, .T. ) ;
#177 = DIRECTION ( 'NONE',  ( 1.000000000000000000, 0.000000000000000000, -0.000000000000000000 ) ) ;
#178 = AXIS2_PLACEMENT_3D ( 'NONE', #77, #157, #132 ) ;
#179 = APPROVAL_STATUS ( 'not_yet_approved' ) ;
#180 = LOCAL_TIME ( 10, 12, 46.00000000000000000, #114 ) ;
#181 = CARTESIAN_POINT ( 'NONE',  ( 4.336808689942017736E-15, 0.000000000000000000, 27.18010545882709650 ) ) ;
#182 = PRODUCT_RELATED_PRODUCT_CATEGORY ( 'detail', '', ( #64 ) ) ;
#183 = SPHERICAL_SURFACE ( 'NONE', #91, 25.00000000000000000 ) ;
#184 = PERSON_AND_ORGANIZATION ( #71, #136 ) ;
#185 = APPROVAL_STATUS ( 'not_yet_approved' ) ;
#186 = CARTESIAN_POINT ( 'NONE',  ( -6.349999999999999645, 0.000000000000000000, 3.000000000000000000 ) ) ;
#187 = PLANE ( 'NONE',  #113 ) ;
#188 = CARTESIAN_POINT ( 'NONE',  ( 4.336808689942017736E-15, 0.000000000000000000, 2.999999999999999112 ) ) ;
#189 = EDGE_CURVE ( 'NONE', #133, #65, #24, .T. ) ;
#190 = CIRCLE ( 'NONE', #178, 6.349999999999999645 ) ;
#191 = CYLINDRICAL_SURFACE ( 'NONE', #66, 6.349999999999999645 ) ;
#192 = ORIENTED_EDGE ( 'NONE', *, *, #30, .T. ) ;
#193 = ORIENTED_EDGE ( 'NONE', *, *, #189, .T. ) ;
#194 = CIRCLE ( 'NONE', #18, 6.350000000000011191 ) ;
#195 = PERSON_AND_ORGANIZATION ( #71, #136 ) ;
#196 = DIRECTION ( 'NONE',  ( 0.000000000000000000, 1.000000000000000000, -0.000000000000000000 ) ) ;
#197 = APPROVAL_ROLE ( '' ) ;
#198 = CC_DESIGN_PERSON_AND_ORGANIZATION_ASSIGNMENT ( #16, #31, ( #36 ) ) ;
#199 = LOCAL_TIME ( 10, 12, 46.00000000000000000, #44 ) ;
#200 = DATE_TIME_ROLE ( 'creation_date' ) ;
#201 = AXIS2_PLACEMENT_3D ( 'NONE', #56, #72, #175 ) ;
ENDSEC;
END-ISO-10303-21;
